Used - Lunacy Fringe Chords & Tabs

 

Lunacy Fringe Chords & Tabs

Used Chords & Tabs

Version: 1 Type: Tab 0 ratings
1 star 2 stars 3 stars 4 stars 5 stars
comments

Lunacy Fringe Tab

This is a tab for the intro and the first verse of one of the new Used songs. Enjoy!!!


Intro

e-----0-2-0---------------0-2-0-----------4-|
B---0-------4-2-4-0-2---0-------4-2-4-0-2-2-|
G-3-------------------3-------------------3-|
D-------------------------------------------|
A-------------------------------------------|
D-------------------------------------------|

[ Tab from: http://www.guitartabs.cc/tabs/u/used/lunacy_fringe_tab.html ]
Verse

e-------------------------------------------------------------|
B-------------------------------------------------------------|
G-5--5--5--5-5--7--7--7--7-7--9--9--9--9-9--12--12--12--12-12-|
D-3--3--3--3-3--5--5--5--5-5--7--7--7--7-7--10--10--10--10-10-|
A-------------------------------------------------------------|
D-------------------------------------------------------------|
Comments