Used - Listening Chords & Tabs

 

Listening Chords & Tabs

Used Chords & Tabs

Version: 2 Type: Tab 0 ratings
1 star 2 stars 3 stars 4 stars 5 stars
comments

Listening Tab

   
----------------------------------------------------------------------------
			     Listening - The Used
----------------------------------------------------------------------------
Tabbed by: Stumaster18
Email: placebo_182@hotmail.com

Tuning: Drop D Tuning (D A D G B e)

Intro Part 1: Plays through once, then goes to Intro Part 2

e|-000-000-000-000-00000-0-00000-0-00000-----------------------------------|
B|-888-666-555-666-55555-3-55555-3-55555-----------------------------------|
G|-------------------------------------------------------------------------|
D|-------------------------------------------------------------------------|
A|-------------------------------------------------------------------------|
D|-------------------------------------------------------------------------|

Intro Part 2: Plays through four times

e|-000-000-000-000-0000----------------------------------------------------|
B|-888-666-555-666-5555----------------------------------------------------|
G|-------------------------------------------------------------------------|
D|-------------------------------------------------------------------------|
A|-------------------------------------------------------------------------|
D|-------------------------------------------------------------------------|

Intro Part 2 is also the second half of the first verse (you again play it four times), 
then it leads into the chorus...

Chorus: I'm pretty sure this is how many times he plays each chord (play through two times)
[ Tab from: http://www.guitartabs.cc/tabs/u/used/listening_tab_ver_2.html ]
e|-------------------------------------------------------------------------|
B|-------------------------------------------------------------------------|
G|-------------------------------------------------------------------------|
D|-77-777-77-77--33-333--00-00---------------------------------------------|
A|-77-777-77-77--33-333--00-00---------------------------------------------|
D|-77-777-77-77--33-333--00-00---------------------------------------------|

There is absolutely no guitar through the entire second verse. After the second verse 
is all screaming), you start the chorus again, and play through it four times instead of 
times

And through the interlude, there is no guitar again (to my knowledge), and then it gets 
the chorus again. Play the chorus four times.

Then after that chorus, it leads into guitar with heavy distortion playing this...

e|-------------------------------------------------------------------------|
B|-------------------------------------------------------------------------|
G|-------------------------------------------------------------------------|
D|---77777-77777--33333-33333----------------------------------------------|
A|---77777-77777--33333-33333----------------------------------------------|
D|---77777-77777--33333-33333----------------------------------------------|

Then that leads into the outro..

Outro:

e|--------------------------------|-----------------------------------------|
B|--Plays through-twice-----------|------------Finish with this-------------|
G|--------------------------------|-----------------------------------------|
D|-77-777-77-77--33-333--00-00----|-----7--7~-------------------------------|
A|-77-777-77-77--33-333--00-00----|-----7--7~-------------------------------|
D|-77-777-77-77--33-333--00-00----|-----7--7~-------------------------------|

And there you go! pretty easy song to play, but the song rock anyways. email me if there 
any mistakes =)
Comments