Used - Light With A Sharpened Edge Chords & Tabs

 

Light With A Sharpened Edge Chords & Tabs

Used Chords & Tabs

Version: 3 Type: Tab 0 ratings
1 star 2 stars 3 stars 4 stars 5 stars
comments

Light With A Sharpened Edge Tab

   
-------------------------------------------------------------------------------
Tabbed by:Nick D.


Tuning:Drop D
[ Tab from: http://www.guitartabs.cc/tabs/u/used/light_with_a_sharpened_edge_tab_ver_3.html ]
Intro:
e|--------2----2-------------------2----2----5-----5-------------------------|
B|---33335-5555-5333333222222-33335-5555-5333-33222-22-----------------------|
G|---------------------------------------------------------------------------|
D|---------------------------------------------------------------------------|
A|---------------------------------------------------------------------------|
E|---------------------------------------------------------------------------|
Verses 1:    Formations of D Chord       
e|----2---2---0---0---0---0---2---2------------------------------------------|
B|----------3---3---3---3----------------------------------------------------|
G|--2---2-------------------0---0--------------------------------------------|
D|-0---0---0---0---2---2---2---2---------------------------------------------|
A|---------------------------------------------------------------------------|
E|---------------------------------------------------------------------------|
Chorus 1:
e|---------222222----5---5---5---5-------------------------------------------|
B|---333333-------3h5-3h5-3h5-3h5--------------------------------------------|
G|---------------------------------------------------------------------------|
D|---------------------------------------------------------------------------|
A|---------------------------------------------------------------------------|
E|---------------------------------------------------------------------------|
Verse 2:            Verse 1 + Guitar 2
e|-2222222222222222222222222222222222222222222222----------------------------|
B|-3333333333333333333333333333333333333333333333----------------------------|
G|---------------------------------------------------------------------------|
D|---------------------------------------------------------------------------|
A|---------------------------------------------------------------------------|
E|---------------------------------------------------------------------------|
Pre Chorus:
e|---------------------------------------------------------------------------|
B|---------------------------------------------------------------------------|
G|-x-x-x-x-x-----------------------------------------------------------------|
D|-5-5-5-5-5-5-5-5-5-5-5-5---------------------------------------------------|
A|-5-5-5-5-5-5-5-5-5-5-5-5---------------------------------------------------|
E|-5-5-5-5-5-5-5-5-5-5-5-5---------------------------------------------------|
Chorus 2:  
e|-----------------------------------------------------2---------------------|
B|-----------------------------------------------------3---------------------|
G|---------------------------------------------------------------------------|
D|--0-0-0-0-0-0-4-4-4-4-4-4-5-5-5-5-5-5-5-5-5-5-5-5--------------------------|
A|--0-0-0-0-0-0-4-4-4-4-4-4-5-5-5-5-5-5-5-5-5-5-5-5--------------------------|
E|--0-0-0-0-0-0-4-4-4-4-4-4-5-5-5-5-5-5-5-5-5-5-5-5--------------------------|
Bridge:                     second time instead of 0's do:
e|--------------------------------------------------|------------------------|
B|--------------------------------------------------|--------X6--------------|
G|--------------------------------------------------|-777999{11}-------------|
D|--4-4-4-4----3-3-3-3-----0-0-0-0-0-0-0-0-0-0-0-0--|------------------------|
A|--4-4-4-4----3-3-3-3-----0-0-0-0-0-0-0-0-0-0-0-0--|-555777{9}--------------|
E|--4-4-4-4----3-3-3-3-----0-0-0-0-0-0-0-0-0-0-0-0--|------------------------|

e|---------------------------------------------------------------------------|
B|---------------------------------------------------------------------------|
G|---------------------------------------------------------------------------|
D|--4-4-4-4####3-3-3-3####0-0-0-0-0-0-0-0-0-0-0-0----------------------------|
A|--4-4-4-4####3-3-3-3####0-0-0-0-0-0-0-0-0-0-0-0----------------------------|
E|--4-4-4-4####3-3-3-3####0-0-0-0-0-0-0-0-0-0-0-0----------------------------|

  + This Guitar 2
e|---------------------------------------------------------------------------|
B|---------------------------------------------------------------------------|
G|-4-4-4-4-4-4-7-7-7-7-7-7---------------------------------------------------|
D|-4-4-4-4-4-4-7-7-7-7-7-7-5-5-5-5-5-5-4-4-4-4-4-4---------------------------|
A|-2-2-2-2-2-2-5-5-5-5-5-5-5-5-5-5-5-5-4-4-4-4-4-4---------------------------|
E|-------------------------5-5-5-5-5-5-4-4-4-4-4-4---------------------------|

(Verse 1)
(Chorus 2)
End with (intro)

Ill tab solo later for more details email me Ndwizeone@elitemrp.net
p.s those scratches are possible palmutes



| #  Scratch
| /  slide up
| \  slide down
| h  hammer-on
| p  pull-off
| ~  vibrato
| +  harmonic
| x  Mute note
===============================================================================
Comments