Used - Let It Bleed Chords & Tabs

 

Let It Bleed Chords & Tabs

Used Chords & Tabs

Version: 2 Type: Tab

Let It Bleed Tab

			     let it bleed - the used
----------------------------------------------------------------------------
Tabbed by:alexakos
Email:nirv94al@hotmail.com

this is let it bleed.ok yeah maybe it's not accurate,maybe it is.i never said it's the 
tab ever and i sure as hell dn't care that much it's just a tab! and i did it for fun so 
you fucking haters can suck my DICK =D enjoy(or not)

ps:you gotta play it fast,not slow..that's the only way you'll see some resemblance to 
song.thanx

Tuning:DADGBE(drop-d)

Intro

guitar 1
e|-------------------------------------------------------------------------|
B|--8-------88---88-------88---88----------88---88-------------------------|
G|--8-------88---88-------88---88----------88---88-------------------------|
D|-----66------------88-------------1010------------1010-------------------|
A|----(P.M)---------(P.M)-----------(P.M)-----------(P.M)------------------|
D|-------------------------------------------------------------------------|

guitar 2(instead of bass)plays that part after g1 has played intro twice
e|-----------------------------------------------------------------------|
B|-----------------------------------------------------------------------|
G|-----------------------------------------------------------------------|
D|-----------------------------------------------------------------------|
A|------6--8--10---------------------------------------------------------|
D|--10-------------------------------------------------------------------|

Verse

guitar 2(plays that,while guitar 1 keeps playing the intro part)
e|-------------------------------------------------------------------------|
B|-------------------------------------------------------------------------|
G|-------------------------------------------------------------------------|
D|--6666---88888---10-10-10-10-10-10-10-10---------------------------------|
A|--6666---88888---10-10-10-10-10-10-10-10---------------------------------|
D|--6666---88888---10-10-10-10-10-10-10-10---------------------------------|


Pre-chorus(actually it's the last piece of the verse,play that part after
you've played the verse part 3 times)
[ Tab from: http://www.guitartabs.cc/tabs/u/used/let_it_bleed_tab_ver_2.html ]
e|-------------------------------------------------------------------------|
B|-------------------------------------------------------------------------|
G|-------------------------------------------------------------------------|
D|--6666--8888--33333333---------------------------------------------------|
A|--6666--8888--33333333---------------------------------------------------|
D|--6666--8888--33333333---------------------------------------------------|


Chorus(GAIN)

e|-----------------------------------------------------------------------|
B|-----------------------------------------------------------------------|
G|--888------------------------------------------------------------------|
D|--888--10-10-10---13-13-13---------------------------------------------|
A|--666--8--8--8----10-10-10---------------------------------------------|
D|--666--8--8--8----10-10-10---------------------------------------------|


Bridge

e|-----------------------------------------------------------------------|
B|-----------------------------------------------------------------------|
G|--12---8--10-----------------------------------------------------------|
D|---x---x--x-------10-10-10---------------------------------------------|
A|--10---6--8-------10-10-10---------------------------------------------|
D|------------------10-10-10---------------------------------------------|

(HEAVY GAIN)

e|-------------------------------------------------------------------------|
B|-------------------------------------------------------------------------|
G|-------------------------------------------------------------------------|
D|---------------10--------------------------------------------------------|
A|--10---6---8---10--------------------------------------------------------|
D|--12---8--10---10--------------------------------------------------------|

(THIS SMALL PART SHOULD ONLY BE PLAYED AFTER THE FIRST BRIDGE)

e|--88----------8--88------------------------------------------------------|
B|--88----------8--88------------------------------------------------------|
G|--88----------8--88------------------------------------------------------|
D|------888888-------------------------------------------------------------|
A|------666666-------------------------------------------------------------|
D|-------------------------------------------------------------------------|


End on

e|-------------------------------------------------------------------------|
B|-------------------------------------------------------------------------|
G|-------------------------------------------------------------------------|
D|---10--10--10--/---------------------------------------------------------|
A|---10--10--10--/---------------------------------------------------------|
D|---10--10--10--/---------------------------------------------------------|

INTRO(X2)
VERSE(X3)
PRE-CHORUS
CHORUS
VERSE(X3)
PRE-CHORUS
CHORUS
BRIDGE
VERSE(X3)
CHORUS
BRIDGE
END ON