Used - Just A Little Chords & Tabs

 

Just A Little Chords & Tabs

Used Chords & Tabs

Version: 1 Type: Tab 0 ratings
1 star 2 stars 3 stars 4 stars 5 stars
comments

Just A Little Tab

   
As always work out timing, structure etc yourself

Tuning drop D (D, A, D, G, B, e)

Intro (Clean)

e|------------------------------------------------------------|
B|------------------------------------------------------------|
G|-14-14-14-14-14-14--10-10-10--14-14-14-14-14-14--15-15-15---|
D|--x--x--x--x--x--x---x--x--x---x--x--x--x--x--x---x--x--x---|
A|-12-12-12-12-12-12---8--8--8--12-12-12-12-12-12--13-13-13---|
D|------------------------------------------------------------|

Intro 2/ Verse (Distortion)

e|------------------------------------------------------------|
B|------------------------------------------------------------|
G|-14-14-14-14-14-14--10-10-10--14-14-14-14-14-14--15-15-15---|
D|--x--x--x--x--x--x---x--x--x---x--x--x--x--x--x---x--x--x---|
A|-12-12-12-12-12-12---8--8--8--12-12-12-12-12-12--13-13-13---|
D|------------------------------------------------------------|
[ Tab from: http://www.guitartabs.cc/tabs/u/used/just_a_little_tab.html ]
Pre-Chorus
e|--------------------------------0~~~~|
B|--------------------------------0~~~~|
G|-------------3-3-3--------------3~~~~|
D|-3-2-0-3-2-0-3-3-3--3-2-0-3-2-0-3~~~~|
A|-3-2-0-3-2-0-1-1-1--3-2-0-3-2-0-1~~~~|
D|-3-2-0-3-2-0--------3-2-0-3-2-0------|

Chorus

e|----------------------------------------------|
B|----------------------------------------------|
G|-10-10-10-10-10-10-10-10--15-15-15-14-14-14---|
D|--8--8--8--8--8--8--8--8---x--x--x--x--x--x---|
A|--8--8--8--8--8--8--8--8--13-13-13-12-12-12---|
D|--8--8--8--8--8--8--8--8---0--0--0--0--0--0---|

Pre-Bridge

e|---------------------------------------------|
B|---------------------------------------------|
G|-14-14-14-14-14-14-14-14-14-14-14-14-14-14---|
D|--x--x--x--x--x--x--x--x--x--x--x--x--x--x---|
A|-12-12-12-12-12-12-12-12-12-12-12-12-12-12---|
D|---------------------------------------------|

Bridge

e|--------------|
B|--------------|
G|------14------|
D|--------------|
A|---12----12---|
D|-0------------|
Comments