Used - Its Hard To Say Chords & Tabs

 

Its Hard To Say Chords & Tabs

Used Chords & Tabs

Version: 1 Type: Bass Tab

Its Hard To Say Bass Tab

Verse 1
G|--------------------------------------------------------------|
D|--------------------------------------------------------------|
A|-8/5-5-5-5-5-5-5/2-2-2-2-2-2-0-0-0-0-0-0-0-0-0-0-0-0-0-0-0-0--|x2
E|--------------------------------------------------------------|
B|--------------------------------------------------------------|

G|--------------------------------------------------------------|
D|--------------------------------------------------------------|
A|---------------------------2-2-2-2-0--------------------------|
E|-3-3-3-3-3-3/5-5-5-5-5-5-5-----------3-3-3-3/5-5-5-5-5-5-5-5-5|
B|--------------------------------------------------------------|

Chorus

G|--------------------------------------------------------------|
D|--------------------------------------------------------------|
A|-5-5-5-5-5-5-5/4/2-2-2-2--------------------------------------|x2
E|--------------------------------------------------------------|
B|--------------------------------------------------------------|

G|--------------------------------------------------------------|
D|--------------------------------------------------------------|
A|--------5555--------------------------------------------------|
E|-222/333------------------------------------------------------|
B|--------------------------------------------------------------|

Verse 2( Repeat verse )

Chorus 2
G|--------------------------------------------------------------|
D|--------------------------------------------------------------|
A|-5-5-5-5-5-5-5/4/2-2-2-2--------------------------------------|x2
E|--------------------------------------------------------------|
B|--------------------------------------------------------------|
[ Tab from: http://www.guitartabs.cc/tabs/u/used/its_hard_to_say_btab.html ]
G|--------------------------------------------------------------|
D|--------------------------------------------------------------|
A|--------5555--------------------------------------------------|
E|-222/333------------------------------------------------------|
B|--------------------------------------------------------------|

G|--------------------------------------------------------------|
D|--------------------------------------------------------------|
A|-5-5-5-5-5-5-5/4/2-2-2-2--------------------------------------|x2
E|--------------------------------------------------------------|
B|--------------------------------------------------------------|

G|--------------------------------------------------------------|
D|--------------------------------------------------------------|
A|--------5555--------------------------------------------------|
E|-222/333------------------------------------------------------|
B|--------------------------------------------------------------|

Bridge
G|--------------------------------------------------------------|
D|--------------------------------------------------------------|
A|------2222/333333333333---------------------------------------|x2
E|-0000---------------------------------------------------------|
B|--------------------------------------------------------------|

G|--------------------------------------------------------------|
D|--------------------------------------------------------------|
A|--------------------------------------------------------------|
E|-33333/55555--------------------------------------------------|
B|--------------------------------------------------------------|

G|--------------------------------------------------------------|
D|--------------------------------------------------------------|
A|--------------------------------------------------------------|
E|-22222--------000000------------------------------------------|
B|-------333333-------------------------------------------------|

Last Chorus (repeat chorus 2 )

-Revin Enriquez -