Used - Im A Fake Chords & Tabs

 

Im A Fake Chords & Tabs

Used Chords & Tabs

Version: 3 Type: Tab

Im A Fake Tab

   
-----------------------------------------------------------------------------
			     I'm A Fake - The Used
-----------------------------------------------------------------------------

Tabbed by: kiefermatot

Email: bamcky2k_69@hotmail.com


Intro - Bert talking

Then main riff comes in about 30 seconds into the intro
E|------------------------------------------------------------------| X2
B|------------------------------------------------------------------|
G|--99999999--1212121212121212--5555555555555555--------------------|
D|--99999999--1212121212121212--5555555555555555--------------------|
A|--77777777--1010101010101010--3333333333333333--------------------|
E|------------------------------------------------------------------|


E|---15-------------------------------------------------------------| X2
B|------13--12--15--13--12-12--12--13--12--12-12--------------------|
G|------------------------------------------------------------------|
D|------------------------------------------------------------------|
A|------------------------------------------------------------------|
E|------------------------------------------------------------------|
   Then main riff keeps going with this on top^^^


Verse 1 
E|------------------------------------------------------------------| X2
B|------------------------------------------------------------------|
G|--99999999--1212121212121212--5555555555555555--------------------|
D|--99999999--1212121212121212--5555555555555555--------------------|
A|--77777777--1010101010101010--3333333333333333--------------------|
E|------------------------------------------------------------------|
P.M.............................................

Then twice, not palm muted^^

Pre-Chorus
E|------------------------------------------------------------------|
B|--12-12-12-12-12-12-12-12-13-13-13-13-13-13-13-13-----------------|
G|--12-12-12-12-12-12-12-12-12-12-12-12-12-12-12-12-----------------|
D|------------------------------------------------------------------|
A|------------------------------------------------------------------|
E|------------------------------------------------------------------|

Chorus
E|------------------------------------------------------------------| X2
B|------------------------------------------------------------------|
G|--99999999--1212121212121212--5555555555555555--------------------|
D|--99999999--1212121212121212--5555555555555555--------------------|
A|--77777777--1010101010101010--3333333333333333--------------------|
E|------------------------------------------------------------------|

Bridge- Similar to the Intro, a few different notes.
[ Tab from: http://www.guitartabs.cc/tabs/u/used/im_a_fake_tab_ver_3.html ]
Verse 2
E|------------------------------------------------------------------|X2
B|------------------------------------------------------------------|
G|--99999999--1212121212121212--5555555555555555--------------------|
D|--99999999--1212121212121212--5555555555555555--------------------|
A|--77777777--1010101010101010--3333333333333333--------------------|
E|------------------------------------------------------------------|
P.M. three notes, then play one open, in that order

Verse 2- Part 2
E|------------------------------------------------------------------| X2
B|------------------------------------------------------------------|
G|--99-0-999-0--1212-0-121212-0--55-0-555-0-555-0-555-0-------------|
D|--99-0-999-0--1212-0-121212-0--55-0-555-0-555-0-555-0-------------|
A|--77-0-777-0--1010-0-101010-0--33-0-333-0-333-0-333-0-------------|
E|------------------------------------------------------------------|

Pre-Chorus
Chorus

Interlude-1-Heavy Bass in the background, But still the main riff with a few changes
E|------------------------------------------------------------------| X2
B|------------------------------------------------------------------|
G|--9-9-9-9--12-12-12-12--5-5-5-5--5-5-5-5--------------------------|
D|--9-9-9-9--12-12-12-12--5-5-5-5--5-5-5-5--------------------------|
A|--7-7-7-7--10-10-10-10--3-3-3-3--3-3-3-3--------------------------|
E|------------------------------------------------------------------|

Interlude-2
E|--12--10--8-------------------------------------------------------|X6
B|------------------------------------------------------------------|
G|------------------------------------------------------------------|
D|------------------------------------------------------------------|
A|------------------------------------------------------------------|
E|------------------------------------------------------------------|

Interlude-2 continued...

E|------------------------------------------------------------------|X2
B|------------------------------------------------------------------|
G|--99999999--1212121212121212--5555555555555555--------------------|
D|--99999999--1212121212121212--5555555555555555--------------------|
A|--77777777--1010101010101010--3333333333333333--------------------|
E|------------------------------------------------------------------|
P.M.............................................

Chorus
Interlude-1

Ending Riff
E|------------------0----------------------------------------------|
B|------------------0----------------------------------------------|
G|9999--9999--9999--0--9999--5---5---5---5-------------------------|
D|9999--9999--9999-----9999--5---5---5---5-------------------------|
A|7777--7777--7777-----7777--3---3---3---3-------------------------|
E|-----------------------------------------------------------------|


| .  palm mute note
| /  slide up
| \  slide down
| h  hammer-on
| p  pull-off
| ~  vibrato
| +  harmonic
| x  Mute note
=============================================================================