Used - Im A Fake Chords & Tabs

 

Im A Fake Chords & Tabs

Used Chords & Tabs

Version: 1 Type: Bass Tab 0 ratings
1 star 2 stars 3 stars 4 stars 5 stars
comments

Im A Fake Bass Tab

   
Song: Im A Fake

By: The Used

CD: In Love And Death #12

Tab Done by: The Used Guy 664(aka Sean rock on)

Aight this is a weird song and probably one of their other hardcore type songs other
Box of sharp Objects and SoundEffects and Overdramatics. This song is at a ver low bass
and about half mid. if you have any idea what that means

Beat: You really have to listen to it to get it right cause the way he plays it is
fast for a bassist espicilly the sliding thats nutz

Tuning:Drop D  G, D, A, D

Symbols: \ Slide down
         / Slide up
         ~ Let er ring


To begins theres berts poem where you do not start at all

Intro (start at about :42)
G|--------------------------------|
D|--------------------------------|     x2
A|--------------------------------|
D|-6(8x)-8(8x)-4(14x)-------------|

Verse 1
G|----------------------------------|
D|----------------------------------|
A|-7-7/-7-7/2222-7-7/-7-7/-7-7/2222-|
D|----------------------------------|

G|-------------------------------------------|
D|-------------------------------------------|
A|-------------------------------------------|
D|-6(8x)-8(8x)-4(8x)-6(6x)-8(6x)-4/-4/-4/-4--|

Chorus
G|------------------------------------------------|
D|------------------------------------------------|
A|------------------------------------------------|
D|6(8x)-8(8x)-4(14x)-8(4x)-6(8x)-8(8x)-4(14x)-----|

Verse 2
G|----------------|
D|----------------|
A|6-8-4-4-6-8-4-5-|
D|----------------|

G|-------------|
D|-------------|    2x
A|6(8x)-8-9-10-|
D|-------------|

G|--------------|
D|--------------|
A|6(8x)-4-4-4-4-|
D|--------------|

G|-------------|
D|-------------|    2x
A|6(8x)-8-9-10-|
D|-------------|
[ Tab from: http://www.guitartabs.cc/tabs/u/used/im_a_fake_btab.html ]
G|-----------------|
D|-----------------|     x2
A|8/-8/-8/-8-------|
D|-----------------|

G|--------|
D|--------|
A|4-4-4-4-|
D|--------|

G|---------------|
D|---------------|
A|8/-8/-8/-8/-8--|
D|---------------|

G|-------------------------|
D|-------------------------|
A|2~ (then qucikly mute it)
D|-------------------------

Chorus
G|---------------------------------------------|
D|---------------------------------|2----------|x (2nd time do more of a sticato form)
A|---------------------------------------------|
D|6(8x)-8(8x)-4(14x)-8(4x)-6(8x)-8(8x)-4(14x)--|

G|---------------------|
D|---------------------|   2x
A|---------------------|
D|6-6-6-8-8-8-4-4-4-4--|

G|--------|
D|--------|     2x
A|--------|
D|6~8-4-4~

G|----------|
D|----------|
A|6~-8~-4-4-|
D|----------|

G|----------|
D|----------|
A|6~-8~-4-4-|
D|----------|

G|--------------|
D|--------------|
A|4~-4~-3-5-3-5-|
D|--------------|

G|--------|
D|--------|
A|5~-4~-3~
D|--------

G|--------------------|
D|--------------------|     x2
A|6(8x)-8(8(8x)-4(14x)
D|--------------------

Chorus
G|----------------------------------------------------|
D|----------------------------------------------------|   2x
A|----------------------------------------------------|
D|6(8x)-8(8x)-4(14x)-8(4x)-6(8x)-8(8x)-4(14x)---------|

G|----------------------------------|
D|----------------------------------|    2x
A|----------------------------------|
D|6-6-6-8-8-8-8-9-4-4-4-3-4-4-4-3---|

G|------------------|
D|------------------|     2x
A|------------------|
D|-4---4---4-6------|

G|-----------------|
D|-----------------|
A|-----------------|
D|0----0----0---0~-|


Aight thats what i have if you got any comments or rating please do that please and if
have corrections you can either put them in comments or you can e-mail me so i know i did
wrong at illgrillyourass2002 at yahoo

ok enjoy the song it rocks
GO JEPHA YOU ROCK!
=)
Comments