Used - Hard To Say Chords & Tabs

 

Hard To Say Chords & Tabs

Used Chords & Tabs

Version: 2 Type: Tab

Hard To Say Tab

   
standard e

intro not foun,its hard to hear..

verse 1

guitar 2
e|----------------------------------------------------------|
b|---------7--------------7-------------7-------------------|
g|-----7-----7---7-----7----7---7----7----7-----------  <---|(2x)
d|----------------------------------------------------------|
a|-5-5---5-----5--------------------------------------------|
e|-----------------7-7---7----7---3-3--3----3---------------|

prechorus

e|------------------------------------------------------------------|
b|------------------------------------------------------------------|
g|--------------------------------7-----7---------------------------|
d|---------7-------------9----------7-----7---------7---------7-----|
a|-----5-----5-------7-----7----5-----4-----4----5----5---------5---|
e|-3-3---3-----3/5-5---5-----5----------------3-3--3----3-3-3-----3-|

e|-0~----------------|
b|-0~----------------|
g|-2~----------------|
d|-2~----------------|
a|-0~----------------|
e|-------------------|

chorus part 1

guitar 1
e|----------------------------------------------------|
b|----------------------------------------------------|
g|-7-------6-------4---------------7------------------|
d|-7-(12x)-7-(12x)-4-(12x)-5-------7-(12x)-7-------5~-|
a|-5-------4-------2-------5-(12x)-5-------7-(12x)-5~-|
e|-------------------------3---------------5-------3~-|

guitar 2
e|-0-------0-------2-------0-------2-------0-------0-------2~--|
b|-3-------2-------3-------0-------2-------3-------0-------2~--|
g|-2-(12x)-2-(12x)-4-(12x)-2-(12x)-0-(12x)-2-(12x)-2-(12x)-0~--|
d|-0-------0-------4-------2-------0-------0-------2-------0~--|
a|-----------------2-------0-------2---------------0-------2~--|
a|---------------------------------3-----------------------3~--|

repeat verse
"   "  prechorus

chorus part 2
[ Tab from: http://www.guitartabs.cc/tabs/u/used/hard_to_say_tab_ver_2.html ]
guitar 1
e|----------------------------------------------------|
b|----------------------------------------------------|
g|-7-------6-------4---------------7------------------|
d|-7-(12x)-7-(12x)-4-(12x)-5-------7-(12x)-7----------|
a|-5-------4-------2-------5-(12x)-5-------7-(12x)----|
e|-------------------------3---------------5----------|

guitar 1
e|---------------------------------------------------------|
b|---------------------------------------------------------|
g|-7-------6-------4---------------7-----------------------|
d|-7-(12x)-7-(12x)-4-(12x)-5-------7-(12x)-7-------5-------|
a|-5-------4-------2-------5-(12x)-5-------7-(12x)-5-(12x)-|
e|-------------------------3---------------5-------3-------|
                                                      p.m


guitar 2
e|-0-------0-------2-------0-------2-------0-------0---------|
b|-3-------2-------3-------0-------2-------3-------0---------|
g|-2-(12x)-2-(12x)-4-(12x)-2-(12x)-0-(12x)-2-(12x)-2-(12x)---|
d|-0-------0-------4-------2-------0-------0-------2---------|
a|-----------------2-------0-------2---------------0---------|
a|---------------------------------3-------------------------|

guitar 2
e|-0-------0-------2-------0-------2-------0-------0-------2-------|
b|-3-------2-------3-------0-------2-------3-------0-------2-------|
g|-2-(12x)-2-(12x)-4-(12x)-2-(12x)-0-(12x)-2-(12x)-2-(12x)-0-(12x)-|
d|-0-------0-------4-------2-------0-------0-------2-------0-------|
a|-----------------2-------0-------2---------------0-------2-------|
a|---------------------------------3-----------------------3-------|


bridge

e|-----------------------------|
b|-----------------------------|
g|-9---------------------------|
d|-9-12x-9-----10-----12-------|
a|-7-----9-12x-10-12x-12-12x---|
e|-------7-----8------10-------|

repeat chorus part 2

enjoy my fwen this is my 1st tab...
it not correct 100% but it enuff to play this song...