Used - Hard To Say Chords & Tabs

 

Hard To Say Chords & Tabs

Used Chords & Tabs

Version: 1 Type: Tab 0 ratings
1 star 2 stars 3 stars 4 stars 5 stars
comments

Hard To Say Tab

===========================================================
	Artist: The Used
	  Song: Hard To Say
	 Album: In Love and Death
===========================================================

Tabbed: TheMutts @ Ultimate-Guitar.com
Email: st_jimmy_themutts@yahoo.com
[ Tab from: http://www.guitartabs.cc/tabs/u/used/hard_to_say_tab.html ]
Tuning: Standard
Guitar: Clean
-----------------------------------
Guitar part comes in 1:20 through
the song
-----------------------------------
     PM-|   PM-|  PM   PM-|  PM-|
||-------7------7---7------7-----7--||
||-----4------4---4------4-----4----||
||---4------4----------4-----4------||
||----------------------------------||
||----------------------------------||
||----------------------------------||


-----------------------------------
Chorus
-----------------------------------

     PM----------------------------------------------|
||---------2-----------2-----------3-----------3-----|
||-------3-----3-----3---3-------3-----3-----3---3---|
||-----5-----5-----5-------5---5-----5-----5-------5-|
||---2-----------2-----------2-----------2-----------|
||---------------------------------------------------|
||---------------------------------------------------|
     

Ending note: The guitar in the song is sort of hard to decipher,
             so I'm about 95% sure its accurate.
Comments