Used - Greener With The Scenery Chords & Tabs

 

Greener With The Scenery Chords & Tabs

Used Chords & Tabs

Version: 2 Type: Tab

Greener With The Scenery Tab

Tabbed By Jayke Birch

Intro: 99% Sure watched it on DVD

E|-------------------------------------|
B|----5-5p3----4-4---------------------|
G|---------------------5-5p0---0-0-----| Last pull off all in one motion hard
D|--------------------3-3-----3-3-3p0--| to explain should figure it out.
A|--0--0-----0--0-0--0-------0---------|
D|-7--------7--------------------------|


Bit in between "Change..."

E|----------|
B|----------|
G|-5~-------|
D|-5~-5~----|
A|-3~-5~----|
D|-3~-5~----|


Chorus:

E|---------|
B|---------|
G|-5~-7~-9-|   Play x2
D|-3~-x~-x-|
A|-3~-5~-7-|
D|-3~-0~---|
[ Tab from: http://www.guitartabs.cc/tabs/u/used/greener_with_the_scenery_tab_ver_2.html ]
E|--------------|
B|--------------|
G|-5~-7~-9~-10~-|
D|-3~-x~-x~-8-~-|
A|-3~-5~-7~-8-~-|
D|-3~-0~----8-~-|


Breakdown:

*Random scrathing and weird noises*

E|-------------------------------------|
B|----5-5p3----4-4---------------------|
G|---------------------5-5p0---0-0-----|
D|--------------------3-3-----3-3-3p0--| 
A|-00--0----00--0-0--0-------0---------| 
D|-------------------------------------|

E|-------------------------------------|
B|--5-5-5p3----4-4---------------------|
G|---------------------5-5p0---0-0-----|
D|--------------------3-3-----3-3-3p0--|
A|----------00--0-0--0-------0---------|
D|-------------------------------------|

Song Order:

INTRO
THE BIT
INTRO
CHORUS
INTRO
CHORUS
BREAKDOWN
CHORUS

Please rate this tab hope its correct. Good luck