Used - Cut Up Angels Chords & Tabs

 

Cut Up Angels Chords & Tabs

Used Chords & Tabs

Version: 3 Type: Tab 0 ratings
1 star 2 stars 3 stars 4 stars 5 stars
comments

Cut Up Angels Tab

   
Song: Cut Up Angels
Artist: The Used
Album: In Love and Death
Tabbed by: zman919191

Tuning: Capo on 2nd Fret and Drop D

Intro
e|-0---0------------|     |------------------|
B|----------0---0---|     |-6---6----0---0---|
G|---5---5----5---5-|     |---5---5----5---5-|
D|------------------|3x   |------------------| 1x
A|------------------|     |------------------|
D|------------------|     |------------------|

Verse
e|--------------------------------|
B|------------------------6-6-8---|
G|-5--5-4-2--2------------------5-|
D|-5--5-5-2--2-0-2--2-2-5---------| 4x
A|-3--3-2-0--0-0-2--2-2-5---------|
D|-------------0-2--2-2-5---------|

PreChorus
e|-------------|
B|-------------|
G|-------------|
D|-6--6--6--6--| 1x
A|-6--6--6--6--|
D|-6--6--6--6--|

Chorus Part 1
e|-------------------------------------|
B|-33333333-33333333-33333333----------|
G|-22222222-22222222-44444444-77777777-|
D|-00000000-22222222-44444444-55557777-| 1x
A|-00000000-00000000-22222222-55557777-|
D|-00000000-------------------55557777-|

Repeat Verse
Repeat Prechorus
Repeat Chorus

Chorus Part 2
e|-----------------------------------------------------|
B|-33333333-33333333-33333333--------------------------|
G|-22222222-22222222-33333333-7777777-7777777-777777777|
D|-00000000-22222222-33333333-5555555-5555555-555555555| 1x
A|-00000000-00000000-11111111-5555555-5555555-555555555|
D|-00000000-------------------5555555-5555555-555555555|
[ Tab from: http://www.guitartabs.cc/tabs/u/used/cut_up_angels_tab_ver_3.html ]
Bridge
Guitar One
e|--------------------------------------|     |------------------|
B|--55555555----------11111111----------|     |-3333333333333333-|
G|--55555555-44444444-22222222-55555555-|     |-3333333333333333-|
D|--55555555-22222222-22222222-33333333-|2x   |-3333333333333333-|
A|--33333333-22222222-00000000-33333333-|     |-1111111111111111-|
D|-----------22222222----------33333333-|     |------------------|

    Guitar Two plays Intro during             e|8-8-8-8-8-8-8-8-8|
        first part of Bridge,                 B|-6-6-6-6-6-6-6-6-|
                 then plays this ------->     G|-----------------|
                                              D|-----------------|
                                              A|-----------------|
                                              D|-----------------|

Repeat Verse, but only play it 2x instead of four times
Repeat Chorus Part 1
Repeat Chorus Part 2, but dont play the last part of it
Repeat Chorus Part 1
Repeat Chorus Part 2

Outro
e|-------------------|    e|-------------------|
B|-33333333-33333333-|    B|-33333333----------|
G|-44444444-33333333-|    G|-44444444-77777777-|
D|-44444444-33333333-|3x  D|-44444444-55555555-|1x
A|-22222222-11111111-|    A|-22222222-55555555-|
D|-------------------|    D|----------55555555-|

End
e|---|
B|-3-|
G|-2-|
D|-0-|1x
A|-0-|
D|-0-|

This tab is 100% correct, any questions email me at zman919191@yahoo.com
Comments