Used - Cut Up Angels Chords & Tabs

 

Cut Up Angels Chords & Tabs

Used Chords & Tabs

Version: 1 Type: Tab 0 ratings
1 star 2 stars 3 stars 4 stars 5 stars
comments

Cut Up Angels Tab

Intro to "Cut Up Angels" on the new CD called "In Love And Death" i just got it
yesterday and its awesome so go buy it!
[ Tab from: http://www.guitartabs.cc/tabs/u/used/cut_up_angels_tab.html ]
e--------------------------------|
B-----7------7------3------3-----|
G-------7-------7-----6------6---|         x3
D--------------------------------|
A--------------------------------|
E--------------------------------|

Then

E--------------------------------|
B-----8------8----------3--------|
G----7------7------6--------6----|
D--------------------------------|
A--------------------------------|
E--------------------------------|

Thats All
Comments