Used - Choke Me Chords & Tabs

 

Choke Me Chords & Tabs

Used Chords & Tabs

Version: 2 Type: Tab 0 ratings
1 star 2 stars 3 stars 4 stars 5 stars
comments

Choke Me Tab

   
-------------------------------------------------------------------------------
			     Choke Me - The Used
-------------------------------------------------------------------------------

Tabbed by: Scuba Steve
Email: scubasteve1@charter.net

Tuning: DADGBE  Dropped D
[ Tab from: http://www.guitartabs.cc/tabs/u/used/choke_me_tab_ver_2.html ]
Intro:  E                    Verse:  E   G   C   F
e|---------------------------------------------------------------------------|
B|---------------------------------------------------------------------------|
G|-------------------------------------------5-------------------------------|
D|------2-2-2-----------------------2---5---5---3---------------------------|
A|------2-2-2---(repeat)------------2---5---3---3----(you do the rhythm)----|
E|------2-2-2-----------------------2---5-------3---------------------------|
Chorus: E                     :last rep:  F  E  D
e|---------------------------------------------------------------------------|
B|---------------------------------------------------------------------------|
G|---------------------------------------------------------------------------|
D|-----2-2--2-2---(add rhythm------------(1x only)---------------------------|
A|-----2-2--2-2-----& repeats)-----------------------------------------------|
E|-----2-2--2-2--------------------------(3)(2)(0)---------------------------|
Interlude:(clean) B                     Breakdown:
e|--------------------7--------7---------------------------------------------|
B|-----------------8------8-8------------------------------------------------|
G|--------------------------------9---------------------------(repeat)-------|
D|------------------------------------------------(repeat)-----3-2-0---------|
A|-------------------------------------------------------------3-2-0---------|
E|------------------------------------------------(3)(2)(0)----3-2-0---------|
2nd Interlude:          E            F
e|------------+9+-----(repeat)----------(repeat)-----------------------------|
B|------------+9+------------------------------------------------------------|
G|------------+9+------999999-------10-10-10-10-10--------------------------|
D|-----------------------------------X--X---X--X--X--------------------------|
A|-----------------------------------8--8---8--8--8--------------------------|
E|---------------------------------------------------------------------------|

This song is really easy; you figure out the rhythm and order, it's not that
hard. The other tab for this song is way off. Because this song is in D, you
can't play it acurately in standard tuning. Email me with questions.

| ( ) palm mute
| /  slide up
| \  slide down
| h  hammer-on
| p  pull-off
| ~  vibrato
| +  harmonic
| x  Mute note

===============================================================================
Comments