Used - Choke Me Chords & Tabs

 

Choke Me Chords & Tabs

Used Chords & Tabs

Version: 1 Type: Tab 0 ratings
1 star 2 stars 3 stars 4 stars 5 stars
comments

Choke Me Tab

   
-------------------------------------------------------------------------------
			     Choke Me - The Used
-------------------------------------------------------------------------------
Tabbed by: Craig Fox
Email: Speaker1180_BSC@quackquack.com
Tuning: suposed to be in drop d but its easier to do it in standard


intro
e|---------------------------------------------------------------------------|
B|---------------------------------------------------------------------------|
G|---------------------------------------------------------------------------|
D|--x-2-2------2-2------2-2------2-2-----555555555---------------------------|
A|--x-2-2------2-2------2-2------2-2-----333333333---------------------------|
E|--x-0-0------0-0------0-0------0-0-----------------------------------------|

Riff 1 x4                 then
e|---------------------|-----------------------------------------------------|
B|---------------------|-----------------------------------------------------|
G|---------------------|-----------------------------------------------------|
D|------------5-5------|---555555555-----------------------------------------|
A|---2-2--5-5-3-3-3-3--|---333333333-----------------------------------------|
E|---0-0--3-3-----1-1--|-----------------------------------------------------|

Riff 2
e|---------------------------------------------------------------------------|
B|---------------------------------------------------------------------------|
G|---------------------------------------------------------------------------|
D|---------------------------------------------------------------------------|
A|---2-2--2-2-2---2-2--2-2-2--2-2-2-2-2-2--2-2-2--2-2--2-2-------------------|
E|---0-0--0-0-0---0-0--0-0-0--0-0-0-0-0-0--0-0-0--0-0--0-0-----3-2-0---------|

Riff 1 again same way x8 (first 4 pm it with a diff rythm)

Riff 2 again 
[ Tab from: http://www.guitartabs.cc/tabs/u/used/choke_me_tab.html ]
Riff 3 x15 (last 8 times add the 5th)
e|---------------------------------------------------------------------------|
B|---------------------------------------------------------------------------|
G|---------------------------------------------------------------------------|
D|---------------------------------------------------------------------------|
A|---(5)-(4)-(2)-------------------------------------------------------------|
E|----3---2---0--------------------------------------------------------------|

then x however many
e|---------------------------------------------------------------------------|
B|--5-5-5-5------------------------------------------------------------------|
G|---------------------------------------------------------------------------|
D|---------------------------------------------------------------------------|
A|---------------------------------------------------------------------------|
E|---------------------------------------------------------------------------|

Riff 4 x4                    this for 1st 3      last time replace with
e|---4-4--4---4-4--4---4-4--4---4-4---4--|--3--|-----------------------------|
B|---3-3--3---3-3--3---3-3--3---3-3---3--|--2--|-----------------------------|
G|---3-3--3---3-3--3---3-3--3---3-3---3--|--2--|-----------------------------|
D|---x-x--x---x-x--x---x-x--x---x-x---x--|--x--|---555555555-----------------|
A|---3-3--3---3-3--3---3-3--3---3-3---3--|--2--|---333333333-----------------|
E|---------------------------------------|-----|-----------------------------|

intro

Riff 2 take off last 3 notes

then thats it its mostly right like i said in the beginning, its suposed to be in
Drop D the only parts that are effected are Riff 3 and the last 3 notes of Riff
2, if u wanna play it live u should put it in Drop D, if u want that version and
can't figure it out urself email me

| /  slide up
| \  slide down
| h  hammer-on
| p  pull-off
| ~  vibrato
| +  harmonic
| x  Mute note
===============================================================================
Comments