Used - Choke Me Chords & Tabs

 

Choke Me Chords & Tabs

Used Chords & Tabs

Version: 2 Type: Bass Tab 0 ratings
1 star 2 stars 3 stars 4 stars 5 stars
comments

Choke Me Bass Tab

   
----------------------------------------------------------------------------
			     Choke Me - The Used
----------------------------------------------------------------------------

Tabbed By : Justin
e-mail: 

Tuning:Drop D-GDAD

| /  slide up
| \  slide down

intro
G|-----------------------------------------------------------------------|
D|-----------------------------------------------------------------------|
A|-----------------------------------------------------------------------|
D|--2/5\-----------------------------------------------------------------|

verse
G|-----------------------------------------------------------------------|
D|-----------------------------------------------------------------------|
A|----------3-33---------------------------------------------------------|
D|2-22-5-55-----3-33-----------------------------------------------------|x3

G|-----------------------------------------------------------------------|
D|-----------------------------------------------------------------------|
A|----------3-3333-3-3333------------------------------------------------|
D|2-22-5-55--------------------------------------------------------------|x1

chorus
G|-----------------------------------------------------------------------|
D|-----------------------------------------------------------------------|
A|------------12\--------------------------------------------------------|
D|2-22-22-2--------2-22--22-2--22-2-22-2-22------------------------------|

G|-----------------------------------------------------------------------|
D|-----------------------------------------------------------------------|
A|----------2/15-1515\---------------------------------------------------|
D|2-22-22-2--------------------------------------------------------------|

versex2
[ Tab from: http://www.guitartabs.cc/tabs/u/used/choke_me_btab_ver_2.html ]
chorus 2
G|-----------------------------------------------------------------------|
D|-----------------------------------------------------------------------|
A|----------12\----------------------------------------------------------|
D|2-22-22-2-----2-22--22-2-22-2------------------------------------------|

G|-----------------------------------------------------------------------|
D|-----------------------------------------------------------------------|
A|-----------------------------------------------------------------------|
D|2-22-22-2----2-2--22---------------------------------------------------|

interlude
G|-----------------------------------------------------------------------|
D|-----------------------------------------------------------------------|
A|-----------------------------------------------------------------------|
D|320-320-320-320--------------------------------------------------------|x23

G|-----------------------------------------------------------------------|
D|-----------------------------------------------------------------------|
A|15-1515----------------------------------------------------------------|
D|-------17/-------------------------------------------------------------|

rest

G|-----------------------------------------------------------------------|
D|-----------------------------------------------------------------------|
A|-----------------------------------------------------------------------|
D|44-444-444-44455-555-555-55577-777-777-77799-999-91010101010101010-----|

versex1

chorus 3

G|-----------------------------------------------------------------------|
D|-----------------------------------------------------------------------|
A|-----------------------------------------------------------------------|
D|2-22--22-2-22-2--2-22--22-2-2------------------------------------------|

Awesome song, by the best band ever. Enjoy.
Comments