Used - Buried Myself Alive Chords & Tabs

 

Buried Myself Alive Chords & Tabs

Used Chords & Tabs

Version: 3 Type: Tab 0 ratings
1 star 2 stars 3 stars 4 stars 5 stars
comments

Buried Myself Alive Tab

Artist: The Used
Song: Buried MYself Alive
Tabbed By: funeralforafrie

Figure Strumming etc for yourself :)


Intro/Chorus


----------------------------------------------------
----------------------------------------------------
----------------------------------------------------
-5-5-5-5-5-5-5-5-5-5-5-5-5-5-5-5-5-5-5-5-5-5-5-5----
-5-5-5-5-5-5-5-5-5-5-5-5-5-5-5-5-5-5-5-5-5-5-5-5----
-5-5-5-5-5-5-5-5-5-5-5-5-5-5-5-5-5-5-5-5-5-5-5-5----

-----------------
-----------------
-9-9-9-9-9-9-9-9-
-----------------
-7-7-7-7-7-7-7-7-
-----------------

---------------------------------------------------------
---------------------------------------------------------
---------------------------------------------------------
-2-2-2-2-2-2-2-2-2-2-2-2-2-2-2-2-2-2-2-2-2-2-2-2-2-2-2-2-
-2-2-2-2-2-2-2-2-2-2-2-2-2-2-2-2-2-2-2-2-2-2-2-2-2-2-2-2-
-2-2-2-2-2-2-2-2-2-2-2-2-2-2-2-2-2-2-2-2-2-2-2-2-2-2-2-2-


----------------------------------
----------------------------------
----------------------------------
-5-5-5-5-5-5-5-5-5-5-5-5-5-5-5-5--
-3-3-3-3-3-3-3-3-3-3-3-3-3-3-3-3--
----------------------------------

[ Tab from: http://www.guitartabs.cc/tabs/u/used/buried_myself_alive_tab_ver_3.html ]
----------------------------------
----------------------------------
----------------------------------
-7-7-7-7-7-7-7-7-7-7-7-7-7-7-7-7--
-5-5-5-5-5-5-5-5-5-5-5-5-5-5-5-5--
----------------------------------

Verse

----------------------------------
----------------------------------
---7------------------------------
-5---5-0-5-0-5-7-5-0-5-0-5-7-5-0--
----------------------------------
----------------------------------

Bridge

-------------------------------------
-------------------------------------
-------------------------------------
-9---7---5-------9---7---5---5~~~~~~-
-7---5---3-------7---5---3---3~~~~~~-
-------------------------------------


---------------------------------------------------
---------------------------------------------------
-12---12-12---12---12-12---12---12-12---14---14-14-
---------------------------------------------------
-10---10-10---10---10-10---10---10-10---12---12-12-
---------------------------------------------------


Outro
----------------------------------
----------------------------------
---7------------------------------
-5---5-0-5-0-5-7-5-0-5-0-5-7-5-0--
----------------------------------
----------------------------------
Comments