Used - Buried Myself Alive Chords & Tabs

 

Buried Myself Alive Chords & Tabs

Used Chords & Tabs

Version: 1 Type: Tab 0 ratings
1 star 2 stars 3 stars 4 stars 5 stars
comments

Buried Myself Alive Tab

Tabbed By Brandon Wade

INTRO-CHORUS
e|----------------------------------------------------------------
B|----------------------------------------------------------------
G|-----------------------------------55555555--7777777------------
D|--555555555555--44444--2222222222--55555555--7777777------------
A|--555555555555---------2222222222--33333333--5555555------------
E|--333333333333---------0000000000-------------------------------
[ Tab from: http://www.guitartabs.cc/tabs/u/used/buried_myself_alive_tab.html ]
BREAK
Nicer than that....Finally have you
e|----------------------------------------------------------------
B|----------------------------------------------------------------
G|--------7-----5----------9-----7-----5--------------------------
D|--5-----7-----5----------9-----7-----5--------------------------
A|--5-----5-----3----------7-----5-----3--------------------------
E|--3-------------------------------------------------------------

This is the easiest song....by The Used...so have fun!
Comments