Used - Buried Myself Alive Chords & Tabs

 

Buried Myself Alive Chords & Tabs

Used Chords & Tabs

Version: 4 Type: Bass Tab 0 ratings
1 star 2 stars 3 stars 4 stars 5 stars
comments

Buried Myself Alive Bass Tab

   
riff 1

g/----------------------------------------------------------|
d/----------------------------------------------------------|
a/----------------------------------------------------------| these are 1's 
e/33-33-33-3-33-3333-33-3-33-11-11-11-1-11-1111-11-1-11-----|    not 11's

g/--------------------------------------------------------|
d/--------------------------------------------------------|
a/--------------------------------------------------------|
e/00-00-00-0-00-2222-22-2222------------------------------|

riff 2

g/---------------------------------------------------------|
d/---------------------------------------------------------|
a/10-10-10-10-10\-10-10-10-10-10-10h12-11-8-7-7-7-7-7\-----|
e/---------------------------------------------------------|

g/---------------------------------------------------------|
d/---------------------------------------------------------|
a/7-7-7-7-7-7-7--------------------------------------------|
e/--------------8-8-8-88-8-10-10-10-10-10-10-10/15---------|

g/---------------------------------------------------------|
d/---------------------------------------------------------|
a/10-10-10-10-10-10\-10-10-10-10-10-10h12-11-9-------------|
e/---------------------------------------------------------|

g/---------------------------------------------------------|
d/---------------------------------------------------------|
a/7-7-7-7-7\-7-7-7-7-7-/7\---------------------------------|
e/-------------------------8-88-8-88-8-10-10-10-10-10-10---|

g/---------------------------------------------------------|
d/------12----------12-------------12----------12----------|
a/10-10----10-10-10----10-10-10-10----10-10-10-------------|
e----------------------------------------------------------|

riff 3

g/--------------------------------------------------------|
d/--------------------------------------------------------|
a/--------------------------------------------------------|
e/33-33-33-3-33-3333-33-3-33-11-11-11-1-11-1111-11-1------|

g/--------------------------------------------------------|
d/33---3--------------------------------------------------|
a/---1---1-00-00-00-0-00-2222-22-2-22---------------------|
e/--------------------------------------------------------|

riff 4

g/-----------------------------------------------------------|
d/-----------------------------------------------------------|
a/10-10-10-10-10\-10-10-10-10-10\-7-7-7-7-7\-7-7-7-7-7-9-----|
e/-----------------------------------------------------------|
[ Tab from: http://www.guitartabs.cc/tabs/u/used/buried_myself_alive_btab_ver_4.html ]
g/-----------------------------------------------------------|
d/-----------------------------------------------------------|
a/-----------------------------------------------------------|
e/8-8-8-8-8-8-10-1010-10-1010-10/15-1515-15-1515-15-15-15-15-|

g/-----------------------------------------------------------|
d/-----------------------------------------------------------|
a/-----------------------------------------------------------|
e/33-33-33-3-33-3333-33-3-33-11-11-11-1-11-1111-11-1-11------|

g/--------------------------------------------------------|
d/--------------------------------------------------------|
a/--------------------------------------------------------|
e/00-00-00-0-0000-2222-22-2222----------------------------|

riff 5

g/-----------------------------------------------------------|
d/-----------------------------------------------------------|
a/777x-555x-333333-777x-555x-333333--------------------------|
e/-----------------------------------------------------------|

g/-----------------------------------------------------------------|
d/-----------------------------------------------------------------|
a/------------------------/10-77777-1010101010-333333-5555555------|
e/0--------------00------------------------------------------------|

g/-----------------------------------------------------------------|
d/-----------------------------------------------------------------|
a/77777-1010101010-33333-55555-77777-1010101010-33333-555555-------|
e/-----------------------------------------------------------------|

g/-----------------------------------------------------------------|
d/-----------------------------------------------------------------|
a/77777-1010101010-33333-55555-------------------------------------|
e/-----------------------------33333-22222-00000-22222-------------|

g/-----------------------------------------------------------------|
d/-----------------------------------------------------------------|
a/-----------------------------------------------------------------|
e/33333-22222-00000-22222------------------------------------------|

riff 6 (x2)

g/----------------------------------------------------------|
d/----------------------------------------------------------|
a/----------------------------------------------------------| 
e/33-33-33-3-33-3333-33-3-3333-11-11-11-1-11-1111-11-1-11---|    

g/--------------------------------------------------------|
d/--------------------------------------------------------|
a/--------------------------------------------------------|   
e/00-00-00-0000-2222-22-2222------------------------------|

this song is actually played on a 5 string..... and i dont have a 5 string so....
i tabbed it the best i can with my 4 string
Comments