Used - Buried Myself Alive Chords & Tabs

 

Buried Myself Alive Chords & Tabs

Used Chords & Tabs

Version: 1 Type: Bass Tab 0 ratings
1 star 2 stars 3 stars 4 stars 5 stars
comments

Buried Myself Alive Bass Tab

   
it took me a while to get everything right for these tabs but
i love this song so i did my best...


basic tuning    G,D,A,E

Intro
G|--------R--------------------------------------|
D|--------E--------------------------------------|
A|--------S------3-3-3-3-3-3-3-3-5-5-5-5-5-5-5-5-|
E|-3(12x)-T-0(18x)-------------------------------|



Verse
G|-----------------------------------------------------------------
D|-----------------------------------------------------------------
A|-----------------------------------------------------------------
E|-3-3-3-3-3-3-3-3-3-3-3-3-3-3-3h5-0-0-0-0-0-0-0-0-0-0-0-0-0-0-0-0-


verse continued
G|-----------------------------------------------------------------|
D|---------------------------------5-5-5-5-5-5-5-5-5-5-5-5-5-5-5-5-|
A|-3-3-3-3-3-3-3-3-5-5-5-5-5-5-5-5---------------------------------|
E|-----------------------------------------------------------------|


chorus
G|--------R--------------------------------------|
D|--------E--------------------------------------|
A|--------S------3-3-3-3-3-3-3-3-5-5-5-5-5-5-5-5-|
E|-3(12x)-T-0(18x)-------------------------------|

[ Tab from: http://www.guitartabs.cc/tabs/u/used/buried_myself_alive_btab.html ]
Verse
G|-----------------------------------------------------------------
D|-----------------------------------------------------------------
A|-----------------------------------------------------------------
E|-3-3-3-3-3-3-3-3-3-3-3-3-3-3-3h5-0-0-0-0-0-0-0-0-0-0-0-0-0-0-0-0-



verse continued
G|-----------------------------------------------------------------|
D|---------------------------------5-5-5-5-5-5-5-5-5-5-5-5-5-5-5-5-|
A|-3-3-3-3-3-3-3-3-5-5-5-5-5-5-5-5---------------------------------|
E|-----------------------------------------------------------------|


chorus
G|--------R--------------------------------------|
D|--------E--------------------------------------|
A|--------S------3-3-3-3-3-3-3-3-5-5-5-5-5-5-5-5-|
E|-3(12x)-T-0(18x)-------------------------------|


end of chorus/Bridge (nicer than that my foot on ur neck....)
G|-------------------------------------------------------------------
D|--------------------------------------------------5-5-5------------
A|-7-7-5-5-3-3-7-7-5-5-3-3-3-3-3-3-3-3-3-3-3-3-7-7-7------3-3-3-3-3-3
E|-------------------------------------------------------------------


continued
G|------------------| play 5 more times
D|-------5-5-5------|
A|-7-7-7-------3-3-3|
E|------------------|


back to chorus


*~*Order*~*

Intro(1x)
Verse(2x)
Chorus(1x)
Verse(1x)
Chorus(1x)
Bridge(the 7-7-7-5-5-5-3-3-3 is played 6 times)
Chorus(2x)
Comments