Used - Bulimic Chords & Tabs

 

Bulimic Chords & Tabs

Used Chords & Tabs

Version: 2 Type: Tab 0 ratings
1 star 2 stars 3 stars 4 stars 5 stars
comments

Bulimic Tab

   
Drop D
Romzon - fallfromgrace_7@yahoo.com
Artist: The Used
Song: Bulimic
Paki Rate mga Tol..

Intro/Verse
Paulit-ulitin nyo na lang hangang koro
e|------------------------------------------------|
B|------------------------------------------------|
G|--88898--88898--88889---------------------------|
D|--77777--77777--77777---------------------------|
A|--00000--00000--00000---------------------------|
D|------------------------------------------------|

koro
[ Tab from: http://www.guitartabs.cc/tabs/u/used/bulimic_tab_ver_2.html ]
e|------------------------------------------------|
B|------------------------------------------------|
G|--99---9----99--9----66---6----66---6-----------|
D|--99--9-9---99-9-9---66--------66---------------|
A|--77--------77-------44--4-4---44--4-4----------|
D|--77--------77----------------------------------|

Tulay

e|-----------------------------------------------|
B|-----------------------------------------------|
G|-----8----9-9998--88p9-------------------------|
D|----9-----9-9999--99-9-------------------------|
A|---0-------------------------------------------|
D|-----------------------------------------------|
Cont.
e|------------------------------------------|
B|-----9-9-9-9-9-9-9-889--8p9---------------|
G|----9-9-9-9-9-9-9-----9-------------------|

ang wakas

e|---12----12---|
b|-12----12-----|

nk2tamd n eh.. kya yng string n lang yung nilagay q tignan nyo n lang 
kng saan ba2gsak yng note... salamat.. mabuhay ang mga pilipino!!
Comments