Used - Bulimic Chords & Tabs

 

Bulimic Chords & Tabs

Used Chords & Tabs

Version: 2 Type: Bass Tab 0 ratings
1 star 2 stars 3 stars 4 stars 5 stars
comments

Bulimic Bass Tab

   
the used 
bulimic
tabber:daniel182

this song is in drop D and is quite easy to play, please rate this tab!!!
X=considerable pause

Verse 1(00:18)
G|----------------------------------------------------------------------|
D|----------------------------------------------------------------------|
A|44444-44444-4444--44444-44444-4444------------------------------------| x1
D|-----------------------------------77777-77777-7777--77777-77777-7777-|

then...
G|----------------------------|
D|----------------------------|
A|44444-44444-4444-44444-444~-|X1
D|----------------------------|

Chorus(00:34)*NOTE-when there are four notes in the chorus e.g-7777, the bassist
pauses for about half a second before the fourth note
G|-------------------------------------------------------------|
D|-------------------------------------------------------------|
A|----------------------777-66-22------------------------------|x2
D|7777-7777-777-7777-77-----------4444-4444-444--4444-4444-444-|
[ Tab from: http://www.guitartabs.cc/tabs/u/used/bulimic_btab_ver_2.html ]
Verse 2(01:02)
G|----------------------------------------------------------------------|
D|----------------------------------------------------------------------|
A|44444-44444-4444--44444-44444-4444------------------------------------| x1
D|-----------------------------------77777-77777-7777--77777-77777-7777-|

then...
G|-----------------------------------|
D|-----------------------------------|
A|44444-44444-4444--44444-44444-4444-|x1
D|-----------------------------------|

then straight into chorus 2(01:18)
G|-------------------------------------------------------------|(let last note ring
D|-------------------------------------------------------------|out on 2nd time round)
A|----------------------777-66-22------------------------------|x2 
D|7777-7777-777-7777-77-----------4444-4444-444--4444-4444-444-|

Bridge (01:40)        (02:21)
G|----X-----------|  |---------|
D|-2~-X-----------|  |---------|
A|0---X--2h4-44---|x4|---------|x2
D|----X-4------4~-|  |2~--2-7~-|

Chorus 3(02:23)
G|-------------------------------------------------------------|
D|-------------------------------------------------------------|
A|----------------------777-66-22------------------------------|x2
D|7777-7777-777-7777-77-----------4444-4444-444--4444-4444-444-|

Outro(02:45) 
G|----------------------------| 
D|-2~---2~--------------------|  
A|0----0---2h4-44-----2h4-44--|x1
D|--------4------4~--4------4~|  

then...
G|----X-----------|  
D|-2~-X-----------|  
A|0---X--2h4-44---|x1
D|----X-4------4~-|  

THATS IT! please rate this tab! thanks
Comments