Used - Blue And Yellow Chords & Tabs

 

Blue And Yellow Chords & Tabs

Used Chords & Tabs

Version: 2 Type: Tab 0 ratings
1 star 2 stars 3 stars 4 stars 5 stars
comments

Blue And Yellow Tab

   
-----------------------------------------------------------------
Blue and Yellow - The Used
-----------------------------------------------------------------
Tabbed by: biggystick
Email: biggystick@hotmail.com

Tuning: Drop D

This is actually the best song in the world and that's why I tabbed it. Let me know
what you think of the tab by e-mailing me as it's my first one. Have fun playing this
song. James 

e|---Intro/Verse-Pt1---------------------------------------------|
B|---------------------------------------------------------------|
G|-10-10-9-9-9-9-9-9-10-10-10-10-10-10-10------------------------|
D|---------------------------------------------(Play 6 Times)----|
A|--8--8-7-7-7-7-7-7--8--8--8--8--8--8--8------------------------|
D|---------------------------------------------------------------|

e|---Verse-Pt2---------------------------------------------------|
B|---------------------------------------------------------------|
G|------9--------9--------9-------9-------10-------10-------10---|
D|---------------------------------------------------------------|
A|--7-7----7-7-7----7-7-7---7-7-7---7-8-8----8-8-8----8-8-8------|
D|---------------------------------------------------------------|

e|---------------------------------------------------------------|
B|---------------------------------------------------------------|
G|-------10------------------------------------------------------|
D|-----------------------(Play twice)----------------------------|
A|-8-8-8---------------------------------------------------------|
D|---------------------------------------------------------------|

e|---Chorus------------------------------------------------------|
B|---------------------------------------------------------------|
G|-10-----12------5------5---------------------------------------|
D|-8(x8)-10-(x8)-0-(x8)-3-(x8)-------(Play this once)-----------|
A|-8------10------0------3---------------------------------------|
D|-8------10------0------3---------------------------------------|
[ Tab from: http://www.guitartabs.cc/tabs/u/used/blue_and_yellow_tab_ver_2.html ]
e|---------------------------------------------------------------|
B|---------------------------------------------------------------|
G|---(Repeat Verse Pt1+2 then do chorus twice)-------------------|
D|---------------------------------------------------------------|
A|---------------------------------------------------------------|
D|---------------------------------------------------------------|

e|---Bridge------------------------------------------------------|
B|---------------------------------------------------------------|
G|---------------------------------------------------------------|
D|-0------------8h9p8--------------------------------------------|
A|-0-(let ring)-8h9p8-(let ring)--------(Play this 4 times)------|
D|-0------------8h9p8--------------------------------------------|

e|---------------------------------------------------------------|
B|---------------------------------------------------------------|
G|---------------------------------------------------------------|
D|-0------------8h9p8-8-8-8-8-8-8-8-8-8-8-8-8-8-8-8-8------------|
A|-0-(let ring)-8h9p8-8-8-8-8-8-8-8-8-8-8-8-8-8-8-8-8------------|
D|-0------------8h9p8-8-8-8-8-8-8-8-8-8-8-8-8-8-8-8-8------------|

e|---------------------------------------------------------------|
B|---------------------------------------------------------------|
G|----(Now play chorus through 4 times)--------------------------|
D|---------------------------------------------------------------|
A|---------------------------------------------------------------|
D|---------------------------------------------------------------|

e|---(Outro)-----------------------------------------------------|
B|---------------------------------------------------------------|
G|-(Play chorus 5 times but instead of playing each chord 8 times|
D|-let each chord ring for the time then slide to the next chord)|
A|---------------------------------------------------------------|
D|---------------------------------------------------------------|

e|---------------------------------------------------------------|
B|-End on this chord---------------------------------------------|
G|----------------------5----------------------------------------|
D|----------------------0----------------------------------------|
A|----------------------0----------------------------------------|
D|----------------------0----------------------------------------|

| / slide up
| \ slide down
| h hammer-on
| p pull-off
| ~ vibrato
| + harmonic
| x Mute note
Comments