Used - Blue And Yellow Chords & Tabs

 

Blue And Yellow Chords & Tabs

Used Chords & Tabs

Version: 1 Type: Bass Tab 0 ratings
1 star 2 stars 3 stars 4 stars 5 stars
comments

Blue And Yellow Bass Tab

Tabbed By : PeaRce
e-mail: Cobains_ghost@hotmail.com

Tuning:EADG

VERSE
G|---------------------------------|
D|---------------------------------|
A|-X-5-5-5-5-7-7-7-----------------|
E|-----------------6-6-6-6-6-6-6-6-|
[ Tab from: http://www.guitartabs.cc/tabs/u/used/blue_and_yellow_btab.html ]
PRE-CHORUS
G|-----------------------------------------------------------------|
D|-----------------------------------------------------------------|
A|-3-3-3-3-3-3-3-3-3-3-3-3-3-3-3-3---------------------------------|
E|---------------------------------6-6-6-6-6-6-6-6-6-6-6-6-6-6-6-6-|

CHORUS
G|-----------------------------------------------------------|
D|-----------------------------------------------------------|
A|-1--1-1-1-1-1-1-3--3-3-3-3-3-3-5--5-5-5-5-5-8--8-8-8-8-8-8-|
E|-----------------------------------------------------------|

BRIDGE
G|--------------|
D|--------------|
A|--5~----------|
E|-------6h7h6~-|
Comments