Used - Back Of Your Mouth Chords & Tabs

 

Back Of Your Mouth Chords & Tabs

Used Chords & Tabs

Version: 3 Type: Tab

Back Of Your Mouth Tab

Okayyy...all these tabs suck. they were all incomplete. Lemme show you how to play it 
and all the way through, eh? :D

Band // The Used
Song // Back of Your Mouth
Tuning // Drop D


Intro -- repeat twice


E ------------------------------|
B ------------------------------|
G ----5-/7--7--10--2-2----------|
D -0--3-/5--5--8---0-0----------| x3
A -0--3-/5--5--8---0-0----------|
D -0--3-/5--5--8---0-0----------|

E ------------------------------|
B ------------------------------|
G --7-6--5--5--6-5/-3--3--------|
D --7-6--5--5--6-5/-3--3--------|
A --5-4--3--3--4-3/-1--1--------|
D ------------------------------|

Verse
"the worms they crack like words and.."

E ------------------------------|
B ------------------------------|
G ------------------------------|
D -5~--------5-5/---5/----------|
A -5~--------5-5/---5/----------|
D -5~--------5-5/---5/----------|

rest

"scabs and ashes, the back of your mouth!"
E -----------------------------------|
B -----------------------------------|
G -----------------------------------|
D --2--3--4--5-----------------------|
A --2--3--4--5-----------------------|
D --2--3--4--5-----------------------|


Chorus X2

"In this exchange I often touch myself..."

E ---------------------------------------------------------------|
B ---------------------------------------------------------------|
G -7-7-7--7-7--7-7-7-7--5-5-5--5-5--5-5-5-5--3-3-3--3-3--3-3-3-3-|
D -5-5-5--5-5--5-5-5-5--3-3-3--3-3--3-3-3-3--1-1-1--1-1--1-1-1-1-|
A -5-5-5--5-5--5-5-5-5--3-3-3--3-3--3-3-3-3--1-1-1--1-1--1-1-1-1-|
D -5-5-5--5-5--5-5-5-5--3-3-3--3-3--3-3-3-3--1-1-1--1-1--1-1-1-1-|

E --------------------|
B --------------------|
G -2-2-2--2-2--2-2-2--|
D -0-0-0--0-0--0-0-0--|
A -0-0-0--0-0--0-0-0--|
D -0-0-0--0-0--0-0-0--|


E ------------------------------|
B ------------------------------|
G ----5-/7--7--10--2-2----------|
D -0--3-/5--5--8---0-0----------| x3
A -0--3-/5--5--8---0-0----------|
D -0--3-/5--5--8---0-0----------|
[ Tab from: http://www.guitartabs.cc/tabs/u/used/back_of_your_mouth_tab_ver_3.html ]
E ------------------------------|
B ------------------------------|
G --7-6--5--5--6-5/-3--3--------|
D --7-6--5--5--6-5/-3--3--------|
A --5-4--3--3--4-3/-1--1--------|
D ------------------------------|


Verse 2
"you throw up everywhere..."

E ------------------------------|
B ------------------------------|
G ------------------------------|
D -5~--------5-5/---5/----------|
A -5~--------5-5/---5/----------|
D -5~--------5-5/---5/----------|

rest

"scabs and ashes, the back of your mouth!"
E ------------------------------------|
B ------------------------------------|
G ------------------------------------|
D --2--3--4--5-5-5-5------------------|
A --2--3--4--5-5-5-5------------------|
D --2--3--4--5-5-5-5------------------|


Chorus x2

Interlude
"you can't kill..."

E --------------------------------------------|
B --------------------------------------------|
G --------------------------------------------|
D ---rest----5-5--5-5--4-4--4-4--3-3--3-3--2~-|
A -----------5-5--5-5--4-4--4-4--3-3--3-3--2~-|
D -----------5-5--5-5--4-4--4-4--3-3--3-3--2~-|

Chorus x3

Outro

E ------------------------------|
B ------------------------------|
G ----5-/7--7--10--2-2----------|
D -0--3-/5--5--8---0-0----------| x2
A -0--3-/5--5--8---0-0----------|
D -0--3-/5--5--8---0-0----------|

E -------------------------------|
B -------------------------------|
G --7-7-7-5-6--------------------|
D --7-7-7-5-6--------------------|
A --5-5-5-3-4--------------------|
D -------------------------------|

E -----------------------------------------|
B -----------------------------------------|
G --/7--7--10--2-2--7-6--5--5--6-5/-3--3---|
D --/5--5--8---0-0--7-6--5--5--6-5/-3--3---|
A --/5--5--8---0-0--5-4--3--3--4-3/-1--1---|
D --/5--5--8---0-0-------------------------|

E ----------------------------------------|
B ----------------------------------------|
G ----------------------------------------|
D -5-5-5-5-5-5-5-5---8-7-5/-3--0-3-4-5----|
A -5-5-5-5-5-5-5-5------------------------|
D -5-5-5-5-5-5-5-5------------------------|

E -------------------|
B -------------------|
G -------------------|
D -5~--5-5-5/--------|
A -5~--5-5-5/--------|
D -5~--5-5-5/--------|

there ya go! awesome song.