Used - Back Of Your Mouth Chords & Tabs

 

Back Of Your Mouth Chords & Tabs

Used Chords & Tabs

Version: 1 Type: Tab 0 ratings
1 star 2 stars 3 stars 4 stars 5 stars
comments

Back Of Your Mouth Tab

It might not be 100% but its somewhere around there
e-------------------------------------------------------------I
B-------------------------------------------------------------I
G-------------------------------------------------------------I
D--3--3--5--5--8--0--0--3--3--5--5--8--0--0-------------------I
A--3--3--5--5--8--0--0--3--3--5--5--8--0--0-------------------I
D--3--3--5--5--8--0--0--3--3--5--5--8--0--0-------------------I

e-------------------------------------------------------------I
B-------------------------------------------------------------I
G-------------------------------------------------------------I
D--3--3--5--5--8--0--0--12--10--10---10--8--8-----------------I
A--3--3--5--5--8--0--0--12--10--10---10--8--8-----------------I
D--3--3--5--5--8--0--0--12--10--10---10--8--8-----------------I
[ Tab from: http://www.guitartabs.cc/tabs/u/used/back_of_your_mouth_tab.html ]
Comments