Used - All That Ive Got Chords & Tabs

 

All That Ive Got Chords & Tabs

Used Chords & Tabs

Version: 2 Type: Bass Tab 0 ratings
1 star 2 stars 3 stars 4 stars 5 stars
comments

All That Ive Got Bass Tab

Band: The Used
Song Name: All That I've Got
Tabber: 555_Maggot_666
This song is in standard tuning ( E, A, D, G ) ( Top to bottom )

Chorus: X2
G-----------------------------------------------------|
D-----------------------------------------------------|
A-----5555--3333--5555--7777--------------------------|
E-----------------------------------------------------|

G-----------------------------------------------------|
D-----------------------------------------------------|
A-----9999--7777--5555--3333--1-----------------------|
E-----------------------------------------------------|

Verse:X1
Wait for verse to be played once then come in when drums do
G-----------------------------------------------------|
D-----------------------------------------------------|
A--5---22--55\--77\--55\--33\--55\--77\--55\--33\--55\|
E-----------------------------------------------------|

G--------------------------|
D--------------------------|
A-77\--55\-33\--55\--77\---|
E--------------------------|

Chorus: X4
G-----------------------------------------------------|
D-----------------------------------------------------|
A-----5555--3333--5555--7777--------------------------|
E-----------------------------------------------------|
[ Tab from: http://www.guitartabs.cc/tabs/u/used/all_that_ive_got_btab_ver_2.html ]
G-----------------------------------------------------|
D-----------------------------------------------------|
A-----9999--7777--5555--3333--1-----------------------|
E-----------------------------------------------------|

Verse:X1
G-----------------------------------------------------|
D-----------------------------------------------------|
A--5---22--55\--77\--55\--33\--55\--77\--55\--33\--55\|
E-----------------------------------------------------|

G--------------------------|
D--------------------------|
A-77\--55\-33\--55\--77\---|
E--------------------------|

Chorus: X4
G-----------------------------------------------------|
D-----------------------------------------------------|Play this twice then
A-----5555--3333--5555--7777--------------------------|go to second part
E-----------------------------------------------------|

G-----------------------------------------------------|
D-----------------------------------------------------|
A-----9999--7777--5555--3333--1-----------------------|
E-----------------------------------------------------|

Verse:X1
G------------------------------------------|
D------------------------------------------|
A--5---22--55\--77\--55\--33\--55\--77\----|
E------------------------------------------|

This is my first tab and tryed playing the one on here and it just didnt quite fit so i 
i'd try it for myself...
Comments