Used - A Box Full Of Sharp Objects Chords & Tabs

 

A Box Full Of Sharp Objects Chords & Tabs

Used Chords & Tabs

Version: 1 Type: Bass Tab 0 ratings
1 star 2 stars 3 stars 4 stars 5 stars
comments

A Box Full Of Sharp Objects Bass Tab

The Used - A Box Full of Sharp Objects
Tabbed By: Jesse (AudioKarate970@aol.com) 

Intro 
G|----------------------------| 
D|----------------------------| 
A|-------0-0-0----------------| 
E|-2-2-2----------------------| 

Verse 1 
G|-------88-----------88------| 
D|----66----66-----66---------| 
A|-44-----------44------------| 
E|----------------------------| 

Verse 2 
G|----------------------------| 
D|----------------------------| 
A|-4>--7>--0>--2>--4>--7>--0~-| 
E|----------------------------| 

Chorus 
G|----------------------------| 
D|----------------------------| 
A|-4>--2>--0>--2>-------------| 
E|----------------------------| 
[ Tab from: http://www.guitartabs.cc/tabs/u/used/a_box_full_of_sharp_objects_btab.html ]
Verse 3 
G|------------------------------------| 
D|------------------------------------| 
A|-4>--7>--0>--2>--4>--7>--0>--2>-----| 
E|------------------------------------| 

Chorus 2 
G|-----------x1|--------------------x3| 
D|-------------|----------------------| 
A|-4~--0>--2>--|-4>--2>--0>--2>-------| 
E|-------------|----------------------| 

Bridge 
G|--------------------x2|--------------------------------x2| 
D|----------------------|----------------------------------| 
A|-7777-99-77--0-00-----|-7777-99-77-7777-99-77-0-00-------| 
E|------------------2-2-|----------------------------2-2---| 

Verse 4 
G|------------------------------------| 
D|------------------------------------| 
A|-4>--7>--0>--2>--4>--7>--0>--2>--4~-| 
E|------------------------------------| 

Song Order: 
Intro x4 
Verse1 x4 
Verse2 x1 
Chorus x2 
Verse3 x1 
Chorus2 x1 
Bridge x1 
Intro x2 
Verse4 x1 
Chorus x8 
Intro x1
Comments