Us Bombs - Youth Goes Chords & Tabs

 

Youth Goes Chords & Tabs

Us Bombs Chords & Tabs

Version: 1 Type: Tab 0 ratings
1 star 2 stars 3 stars 4 stars 5 stars
comments

Youth Goes Tab

   
Band: US Bombs
Song: Youth Goes
Album: Covert Action
Tabber: clark@theoddmenout.com

Intro:
Riff 1                         x1 Riff 2         x2
e--------------------------------|-----------------|------|
B--------------------------------|-----------------|------|
G--6--6--6-6-6-6-----------------|--6--6-5------5--|--6~--|
D--6--6--6-6-6-6--4--4--6-6-6-6--|---------4--3----|--6~--|
A--4--4--4-4-4-4--4--4--6-6-6-6--|-----------------|--4~--|
E-----------------2--2--4-4-4-4--|-----------------|------|

Verse 1:
C#                             F#           G#
Street survives a cocky kid, suburban casualty
C#                                 F#    G#
Carefree, young, and don't fit in, (????)
C#*                                 F#*        G#*
Abbrasive around old sensitives, he targets himself
C#*                         F#*            G#*
Cannon fodder remenates, he slowly blows away

Chorus 1:
C#              G#                  F#
Walk through it all, and don't look back
          Riff 1
You get a blast! Youth goes!

Riff 2 x2
[ Tab from: http://www.guitartabs.cc/tabs/u/us_bombs/youth_goes_tab.html ]
Verse 2:
    C#*                         F#*            G#*
The danger zone is soft to him, they dont understand
        C#*                                    F#*       G#*
They're on the sidelines pulling at you, don't listen to them

Chorus 2:
     C#          G#             F#
They want you to toss it in the can 
      C#            G#        F#
Don't give it up to be an old man
               Riff x2
Then there's a blast! Youth goes!

Solo:
e--------9--8--6------8----------9--8--6-8-9-8-----------------------|
B----------------7-4/---9----------------------9------------9--------|
G--1/6---------------------8-6--------------------8-6---8b9---b9r-6--|
D--------------------------------------------------------------------|
A--------------------------------------------------------------------|
E--------------------------------------------------------------------|

e--------------------------12b13--12--11/9-9--9-9-9-11--11-11-11b12r--|
B---------------------------------------------------------------------|
G--6-6-6-8--8-8-8b9r--6-----------------------------------------------|
D---------------------------------------------------------------------|
A---------------------------------------------------------------------|
E---------------------------------------------------------------------|

Outro: (Riff 1)
               C#
Then there's a blast!
F#    G#   C#
Youth goes on! (This line x4)

That's it! For suggestions, corrections, and requests, email me:
                        oddmenout4@yahoo.com
Comments