Us Bombs - Tora Tora Tora Chords & Tabs

 

Tora Tora Tora Chords & Tabs

Us Bombs Chords & Tabs

Version: 1 Type: Tab 0 ratings
1 star 2 stars 3 stars 4 stars 5 stars
comments

Tora Tora Tora Tab

   
Band: US Bombs
Song: Tora! Tora! Tora!
Album: Back at the Laundromat
Tabber: clark@theoddmenout.com

*= mute chord

Intro Riff:                        x4
e------------------------------------|
B------------------------------------|
G--2-2-2-2-2-------------7-7-7-7-7---| After 2nd time, "Tora..."
D--2-2-2-2-2--2-2-2-2-2--7-7-7-7-7---|
A--0-0-0-0-0--2-2-2-2-2--5-5-5-5-5---|
E-------------0-0-0-0-0--------------|
   * * * *    * * * *    * * * * 

Riff 1:
  (A)     (f#) (e)  (D)
e--5-4-5-4-5-5-4-5-4-5-5-4-5-4-5-5-4-5--|
B--5-5-5-5-5-5-5-5-5-5-5-5-5-5-5-5-5-5--|
G---------------------------------------| x2
D---------------------------------------|
A---------------------------------------|
E---------------------------------------|

Chorus: (Guitar 2 plays Riff 1)
 A          f#    e    D
America the beautiful, amber waves of race
A           f#   e        D
Constitues equality don't dub us left or right
[ Tab from: http://www.guitartabs.cc/tabs/u/us_bombs/tora_tora_tora_tab.html ]
Verse 1:
A        C#    D                e                A
Freedoms just another verb that they've put on a roof
A            C#      D       e                A
Analyze everything I say and take it wrong to boot
A   e  A     e  D    e
Smash! Bash it! Bash it, smash!
A   e  A     e  D    e 
Smash! Bash it! Facism!

Verse 2:
A             C#        D    e      A
Contradition, figure it out, critizism!
A              C#     D           e               A
Maybe yer just coming through, so give me all you want

Riff 1 x2

Chorus 

Bridge:
e                D
Life and Crimes, Crimes of Life!
e                  D               
Much too personal, we wont get through the ground

Intro Riff x8 (with bashing and smashing and stuff)

Tora! Tora! Tora! x4 (to fade)

That's it! For suggestions, corrections, and requests, email me:
                        oddmenout4@yahoo.com
Comments