Uriah Heep - Look At Yourself Chords & Tabs

 

Look At Yourself Chords & Tabs

Uriah Heep Chords & Tabs

Version: 1 Type: Bass Tab 0 ratings
1 star 2 stars 3 stars 4 stars 5 stars
comments

Look At Yourself Bass Tab

Artist:Uriah Heep
Title :Look At Yourself
Album :Look At Yourself
Tuning:EADG
Tabber:Justin van Uum

Intro:
G------------------|
D------------------|
A------------------|
E-55-----55----55--|

Main Riff(you know,the uriah heep rythm)
G--------------------------------------|
D--------------------------------------|
A--------------------------------------|
E-5-55-55-5-55-5-55-5-55-5-5-33333333--|

Pre Chorus
G------------------------|
D-----------------------:|
A------------3-5---3----:|
E--5555-5555---------3---|

Chorus, Slowly,whole notes.         Look at yourseeeeellllfff
G----------------------------------|--------------|
D----------------------------------|-----5--------|
A-------------7-----------------7--|--------------|
E-5---3---5---------5---3---5------|--------------|

After Chorus -  just play the A
G-------------------|
D-------------------|
A--keep going-------|
E-555555555555555---|
[ Tab from: http://www.guitartabs.cc/tabs/u/uriah_heep/look_at_yourself_btab.html ]
Then the bridge:
G-----------------------------------------------------|
D-----------------------------------------------------|
A-----------------------------------------------------|
E-0-00-0-00-00-33-22-11-00-00-00-00-00-33-22-11--0000-|

G--------------------------------------------------|
D--------------------------------------------------|
A--------------------------------------------------|
E-33-22-11-00-33-22-11-00---5/------5/-------------|

The solo riff is the main riff,but after a few times you hear this:
G--------------------------------------|
D--------------5-4-5-4-5-6-------------|
A--------------------------------------|
E-5-55-5-55-----------------5-55-55-55-|

And after that it's just played like this:
G------------------------------------|
D------------------------------------|
A------------------------------------|
E-5-55-55-55-3-2-3-2-3-4--5-55-55-55-|

Outro,later it gets to only d's and e's
G---------------------------|
D------------------------7--|
A-7-77-77-77-77-77-5-5-5----|
E---------------------------|

have fun!
Comments