Uriah Heep - I Wanna Be Free Replace Chords & Tabs

 

I Wanna Be Free Replace Chords & Tabs

Uriah Heep Chords & Tabs

Version: 1 Type: Bass Tab 0 ratings
1 star 2 stars 3 stars 4 stars 5 stars
comments

I Wanna Be Free Replace Bass Tab

   
Uriah Heep

I Wanna Be Free
(From the album 'Look At Yourself')
======================================================
Submitted by Mike(WMtaylor57@aol.com) Arvid (arvid_a@charter.net)
This is a corrected version and much better!
======================================================

Intro:
G---------------------------------------------
D---------------------------------------------
A-----------5---------5---------5-------------
E---5-----3---5-----3---5-----3---0--5--0-----

As I wake up every day with no songs to play
feeling like I ought to pack my bags and run
My imagination flies to some other sunny skies
Where I felt so good and everything was done

G--------------------------
D-------4------4----------
A------------4----5-4-7--
E--------------------------
 And my time was my own 

G--------------------------------------------------------
D-----2--------5---5-----------------------------------
A--2------2------5----4--5--5-7-7-9-9-10-11/12-
E---------------------------------------------------------
  and my heart felt so free            com'on

G------------------------------------------------
D------------------------------------------------
A------------------------------------------------
E--0--5--0---0--5--0---5--5--5--5-3---5--5--5--3-
  
G-----------------------------------------------
D-----------------------------------------------
A-----------------------------------------------
E--------5------5------5----3------5-------5----
 I don't mind a little rain but it doesn't seem             

G------------------------------------------
D------------------------------------------
A-----------------------------------------
E-----5----3----5----------5----------5---
  the same when clouds shut out your beauty
   
G------------------------------------------------
D------------------------------------------------
A------------------------------------------------
E-5-------3--3--3--3-----------5-------5---------
  from my eyes       There's a storm inside..etc
(continues on same pattern till end of verse)
[ Tab from: http://www.guitartabs.cc/tabs/u/uriah_heep/i_wanna_be_free_replace_btab.html ]
G----------------------------
D--------4-----4------------
A-------------4---4--7-----
E-----------------------------
 I can't stand     here alone

G--------------------------------------------------------
D-----2--------5---5-----------------------------------
A--2------2------5----4--5--5-7-7-9-9-10-11/12-
E---------------------------------------------------------
     and I need    to be free           free

(solo same pattern as before)
   E A E E A E A   G A   G A     G     A   G A   G  
  |-----|-----|-----|-----|-----|-----|-----|-----|
   A     G     F#    E     G     D     E A E E A E
  |-----|-----|-----|-----|-----|-----|-----|-----|

So bring fire and bring steel for you know the way I feel
Bring a silver horse to carry me away
I'm no stranger I'm a friend and my pain will never end
Till the world will let us live our lives as one

G-----11---11--11---11---9---9---9---9----
D------------------------------------------------
A---9-----9----9----9-----7---7---7---7----
E------------------------------------------------
And our time is our own    and our

G------12-----12----12-----12----7---7---7---7---
D--------------------------------------------------------
A--10-----10-----10----10------5---5---5---5------
E---------------------------------------------------------
  hearts     can be free

OUTRO: (adlib around the root)
G----------------------------------------------------------------
D----------------------------------------------------------------
A--7-7-7-19-19-19-19-19--5-5-5-17-17-17-17-17--
E------------------------------------------------------------------

G-----------------------------------------------------------------
D-----------------------------------------------------------------
A------------------------------------------------------------------
E--5-5-5-17-17-17-17-17-8-8-8--20-20-20-20-20---

      / - slide up
      \ - slide down

Comments