Uriah Heep - Gypsy Chords & Tabs

 

Gypsy Chords & Tabs

Uriah Heep Chords & Tabs

Version: 1 Type: Bass Tab 0 ratings
1 star 2 stars 3 stars 4 stars 5 stars
comments

Gypsy Bass Tab

Artist:Uriah Heep
Title :Gypsy
Album :very 'eavy very 'umble
Tuning:EADG
Tabber:Justin van Uum

Don't know exactly how much the riffs repeat.
You need to figure that out by yourself. 
Intro:
G-------------------|
D---3-1---5-3-1-----|
A-3-----3--------1--|repeat several times
E-------------------|

G---------------------------------|
D-3--1-----------5--3-1-----------|
A-------3---rest--------1--3--rest|
E---------------------------------|

G-------------------------------|
D-------3--6-----------3----6---|
A-3--6----------3---6-----------|
E-------------------------------|
[ Tab from: http://www.guitartabs.cc/tabs/u/uriah_heep/gypsy_btab.html ]
after that
G----------------------------------------|
D---------3-1--------5-3-1---------------|
A--333333--------333333-------1-33333----|
E----------------------------------------|

Main riff
G----------------|
D------------1---|
A-3--3--3--3-----|
E----------------|

she told me....
G-----------|
D-5-4--5-4--|
A-----------|
E-----------|

he told me to go....
G------------5-4---|
D-5-4---rest-------|
A------------------|
E------------------|

G-------------------------|
D-------------3333--6666--|
A-3333--6666--------------|
E-------------------------|

I don't know the outro....:(
I think it's played in C so....
Comments