Uriah Heep - Easy Livin Chords & Tabs

 

Easy Livin Chords & Tabs

Uriah Heep Chords & Tabs

Version: 1 Type: Bass Tab 0 ratings
1 star 2 stars 3 stars 4 stars 5 stars
comments

Easy Livin Bass Tab

Artist:Uriah Heep
Title:Easy Livin
Tuning:EADG
Album:Demons and Wizards
Tabber:Justin van Uum

  Intro    4x 
||-----------------------------------||----------------------------------|
||o---------------------------------o||----------------------------------|
||o-5-5-5-5-5-5-5-5--5-5-5-5-3-3-4--o||-5-5-5-5-5-5-5-5--5-5-5-5-5-5-5-5-|
||-----------------------------------||----------------------------------|

|------------------------------------------------------------------|
|------------------------------------------------------------------|
|-8-8-8-8-8-8-8-8--5-5----3-3-4---5-5-5-5-5-5-5-5--5-5-5-5-5-5-5-5-|
|----------------------5-------------------------------------------|

                                     Chorus 1
|----------------------------------||------------------------------------|
|----------------------------------||------------------------------------|
|-8-8-8-8-8-8-8-8--5-5-5-5---------||-------------4-4--5-5-5-5-5-5-5-----|
|--------------------------8-8-5-5-||-3-3-7-7-8-8--------------------8-5-|

|-------------------------------------------------------------------|
|----------------------3-3-4-4-5-5----------------------------------|
|------------------5-5-------------------------------------------3--|
|-3-3-3-3-3-3-3-3-------------------3-3-3-3-3-3-3-3--1-1-3-3-5-5----|

                   Interlude
|----------------||-----------------------------------------|
|----------------||-7---------------------------------------|
|-5-5-5-5-5-5-5--||---10-8-10-8-7-8-7-5-3-4--5-5-5-5-5-5-5--|
|----------------||-----------------------------------------|

|-----------------------------------------------------------|
|-7---------------------------------------------------------|
|---10-8-10-8-7-8-7-5-3-4--5-5-5-5-5-5-5-5--5-5-----3-3-4-4-|
|-----------------------------------------------5-5---------|

                                     Verse 2
|----------------------------------||----------------------------------|
|----------------------------------||----------------------------------|
|-5-5-5-5-5-5-5-5--5-5-5-5-3-3-4-4-||-5-5-5-5-5-5-5-5--5-5-5-5-5-5-5-5-|
|----------------------------------||----------------------------------|

|--------------------------------------------------------------------|
|--------------------------------------------------------------------|
|-8-8-8-8-8-8-8-8--5-5-----3-3-4-4--5-5-5-5-5-5-5-5--5-5-5-5-5-5-5-5-|
|----------------------5-5-------------------------------------------|

                                      Chorus 2
|--------------------------7-7-----||----------------------------------|
|----------------------7-7-----7-7-||-5-5-6-6-7-7----------------------|
|------------------5-5-------------||-------------8-8--5-5-5-5---------|
|-1-1-1-1-1-1-1-1------------------||--------------------------5-5-4-4-|

|----------------------------------------------------------------------|
|----------------------------------------------------------------------|
|-------------4-4--5-5-5-5-5---5-3---------------------------------3---|
|-3-3-7-7-8-8----------------5-----5--3-3-3-3-3-3-3-3--1-1-3-3-5-5-----|

                   Interlude
|----------------||-----------------------------------------|
|----------------||-7---------------------------------------|
|-5-5-5-5-5-5-5--||---10-8-10-8-7-8-7-5-3-4--5-5-5-5-5-5-5--|
|----------------||-----------------------------------------|
[ Tab from: http://www.guitartabs.cc/tabs/u/uriah_heep/easy_livin_btab.html ]
|-----------------------------------------------------------||
|-7---------------------------------------------------------||
|---10-8-10-8-7-8-7-5-3-4--5-5-5-5-5-5-5-5--5-5-5-5-5-5-5-5-||
|-----------------------------------------------------------||

 Bridge
(use left hand stretch)
|--------------------------------------------------------------------|
|--------------------------------------------------------------------|
|--------------------------------------------------------------------|
|-5-5-5-5-5-5-5-5--1-1-1-1-3-3-4-4--5-5-5-5-5-5-5-5--1-1-1-1-1-1-3-3-|

|-------------------------------------------------------------------|
|-------------------------------------------------------------------|
|-------------------------------------------------------------------|
|-5-5-5-5-5-5-5-5--3-3-3-3-3-3-3-3--5-5-5-5-5-5-5-5--5-5-5-5-5-5-6--|

|--------------------------------------------------------------------|
|--------------------------------------------------------------------|
|--------------------------------------------------------------------|
|-7-7-7-7-7-7-7-7--3-3-3-3-3-3-3-3--7-7-7-7-7-7-7-7--3-3-3-3-3-3-3/--|

|--------------------------------------------------|
|--------------------------------------------------|
|-12----12----12----12-----10----10----10----10----|
|----12----12----12----12-----10----10----10----10-|

|----------------------------------||
|----------------------------------||
|-8---8---8---8----8---8---8---8---||
|---8---8---8---8----8---8---8---8-||

 Pre-Verse 
|---------------------------------------7-7-5-5----------------------||
|-----------------------------------------------7-7--5-5-7-7-5-5-----||
|-5-5-5-5-5-5-5-5--5-5-----3-3-4-4--5-5--------------------------8-8-||
|----------------------5-5-------------------------------------------||

 Verse 3               
|-------------------------------------------------------7-7-5-5--------|
|---------------------------------------------------------------7-5----|
|-5-5-5-5-5-5-5-5--5-5-5-5-5-5-7---8-8-8-8-8-8-8-8--5-5-------------8--|
|----------------------------------------------------------------------|

|-------------------------------------------------------------------||
|-------------------------------------------------------------------||
|-5-5-5-5-5-5-5-5--5-5-5-5-5-5-7---8-8-8-8-8-8-8-8--5-5-3-3-4-4-5-5-||
|-------------------------------------------------------------------||

   Chorus 3 
||----------------------------------------------------------------------|
||o---------------------------------------------------------------------|
||o---------3-3-4-4--5-5-5-5-5-5-5-3---------------------5-5-5-5-5---5-3|
||--3-3-3-3--------------------------5--3-3-3-3-3-3-3-3------------5----|

|-------------------------------------------------------------------||
|------------------------------------------------------------------o||
|------------------------------3-3--5-5-5-5-5-5-5---5-5-5-5-5-5-5--o||
|-3-3-3-3-3-3-3-3--1-1-3-3-5-5--------------------------------------||

|------------------------------------------------------------------|
|-7----------------------------------------7-----------------------|
|---10-8-10-8-7-8-7-5-3-4--5-5-5-5-5-5-5-----10-8-10-8-7-8-7-5-3-4-|
|------------------------------------------------------------------|

                 Outro
|-----------------||--------------------------|
|-----------------||--------------------------|
|-5-5-5-5-5-5-5-5-||--------------------------|
|-----------------||-5---------3---------1----|

|-----------------------------------*|
|-----------------------------------*|
|------------------------5----------*|
|-0---------(0)------5--------------*|
Comments