Urge - Jump Right In Chords & Tabs

 

Jump Right In Chords & Tabs

Urge Chords & Tabs

Version: 2 Type: Bass Tab 0 ratings
1 star 2 stars 3 stars 4 stars 5 stars
comments

Jump Right In Bass Tab

   
  BTAB: Jump Right In
Artist: The Urge
 Album: Master of Styles
Author: Rattman (jratt0@hotmail.com)

**Padrino's Bass Tab Exclusive!**

Intro:
G---------------------------
D---------------5-5---------
A-5-5-5-3-3-3-3-----1-1-1-1-
E---------------------------

Verse:
G----------------------------------
D----3-----------5-5-3--5-5--------
A-55---5-3-3-3-5-------(1-1)-------
E----------------------------------
                       ^the A#s (1) are played the last time instead of the D.

"in the bed..."
G-----------
D-----------
A-1-1-1-1-1-
E-----------
[ Tab from: http://www.guitartabs.cc/tabs/u/urge/jump_right_in_btab_ver_2.html ]
"even though..."
G-----------
D-----------
A-5--3------
E------3--3-
 ^Pick the same notes for the next part "no song and dance..." without muting
  them.

"just...jump right..."
G-------------
D-------------
A-1-1-1-1-1-1-
E-------------

Chorus:
G-3-1------1/5~-5\1-1-1-1--1-2-
D-----3------------------------
A-------1~---------------------
E------------------------------

Bass Solo:
G-----------------------------------
D-------3---------------------------
A-5-5-5---5-3-3-3-3---------1-1-1-1-
E-------------------3-3-3-3---------
   ^continue playing over next part.


Taken from Padrino's Bass Tab Archive: http://members.xoom.com/jszalma/
Comments