Urbandumb - So Searching Chords & Tabs

 

So Searching Chords & Tabs

Urbandumb Chords & Tabs

Version: 1 Type: Tab 0 ratings
1 star 2 stars 3 stars 4 stars 5 stars
comments

So Searching Tab



drop D ang tuning basta kasabot na mo unsa.

Legend:
*-palm mute
x-dead string
/-slide


intro/verse
e|--------------------------------------------------------------|
B|--------------------------------------------------------------|
G|--------------------------------------------------------------|
d|---------*3--*3----------*4--*4----*3--*3-----*4--*4----------| repeat 5x  
A|-*1--*1----------*4--*4-------------------------------*4--*4--|
D|--------------------------------------------------------------|

then

chorus:
repeat twice
e|----------------------|
B|----------------------|
G|----------------------| then
d|--8---8-------4---4---|
A|--8---8-------4---4---|
D|--8---8-------4---4---|


e|------------------------------|
B|------------------------------|
G|------------------------------|
d|--6--6-------8--8--8----------|
A|--4--4-------6--6--6----------|
D|--x--x-------x--x--x----------|

then

repeat twice
e|-----------------------------------
B|-----------------------------------
G|-----------------------------------
d|--8---8-------4---4----------------
A|--8---8-------4---4----------------
D|--8---8-------4---4----------------

[ Tab from: http://www.guitartabs.cc/tabs/u/urbandumb/so_searching_tab.html ]
e|--------------------------------
B|--------------------------------
G|--------------------------------
d|--6--6-------8--8---------------
A|--4--4-------6--6---------------
D|--x--x-------x--x---------------


then

repeat twice
e|----------------------------|
B|----------------------------|
G|--6--6--6--6--6--6--6--6----|
d|--4--4--4--4--4--4--4--4----|  then
A|--4--4--4--4--4--4--4--4----|
D|--4--4--4--4--4--4--4--4----|

e|----------------------------|
B|----------------------------|
G|--3--3--3--3--3--3--3--3----|
d|--1--1--1--1--1--1--1--1----|
A|--1--1--1--1--1--1--1--1----|
D|--1--1--1--1--1--1--1--1----|


then

repeat twice
e|----------------------|
B|----------------------|
G|--6--6--6--6/8/6------|
d|--4--4--4-------------|
A|--4--4--4-------------|
D|--4--4--4-------------|


then:

verse
chorus
verse
chorus

then

repeat twice then repeat again twice but palm mute
e|---------------------------|
B|---------------------------|
G|--3--3--3--3--3--3--3--3---|
d|--1--1--1--1--1--1--1--1---|
A|--1--1--1--1--1--1--1--1---|
D|--1--1--1--1--1--1--1--1---|

e|---------------------------|
B|---------------------------|
G|--6--6--6--6--6--6--6--6---|
d|--4--4--4--4--4--4--4--4---|
A|--4--4--4--4--4--4--4--4---|
D|--4--4--4--4--4--4--4--4---|


then

e|--4------------|
B|----4----------|
G|------6--------|  hold
d|--------4------|
A|----------4----|
D|------------4--|

then

e|--1------------|
B|----1----------|
G|------3--------|  hold
d|--------1------|
A|----------1----|
D|------------1--|


then

chorus
verse ang outro


Comments