Urban Kieth - I Wanna Love Somebody Like You Chords & Tabs

 

I Wanna Love Somebody Like You Chords & Tabs

Urban Kieth Chords & Tabs

Version: 1 Type: Tab 0 ratings
1 star 2 stars 3 stars 4 stars 5 stars
comments

I Wanna Love Somebody Like You Tab

(banjo part) 
 
-0-0-0-2-0-4-0-5-5-0-

(Verse)

-0-0-0-----------------0--------------------------------------------------
-------4-2-0-0-0-0-0-2---4-2-0-0-0-0-0-2-0-0-0-2-2-0-0-0-2-0-0-----------------------------------
----------------------------------------------------------------------
----------------------------------------------------------------------
----------------------------------------------------------------------
----------------------------------------------------------------------
[ Tab from: http://www.guitartabs.cc/tabs/u/urban_kieth/i_wanna_love_somebody_like_you_tab.html ]
----------------------------------------------------------------------
-0-0-0-0---0-0-2-0-2-----------------------------------------------------------
----------------------------------------------------------------------
---------4-----------2-2-2------------------------------------------------
----------------------------------------------------------------------
----------------------------------------------------------------------

(Ending)

-0-0-2-2-4-4-5-4-2-0------------------------------------------------------------
----------------------------------------------------------------------
----------------------------------------------------------------------
----------------------------------------------------------------------
----------------------------------------------------------------------
----------------------------------------------------------------------
Comments