Urban Keith - Making Memories Of Us Chords & Tabs

 

Making Memories Of Us Chords & Tabs

Urban Keith Chords & Tabs

Version: 1 Type: Tab 6 ratings
1 star 2 stars 3 stars 4 stars 5 stars
comments

Making Memories Of Us Tab

   
First tab, but I believe it's right...Great chick song...Enjoy and make corrections as you see fit.



Intro
E[-------------------------------------------------------
B[-------4-----------------4-----------------------------
G[--4h6----6p4/2---4h6-------6p4/2—1~-2/4/2--------------		x2
D[-------------------------------------------------------
A[-------------------------------------------------------
E[-------------------------------------------------------							



Verse
     E             B               G#m             A             E        B
E[------0-----------2----------------4-----------------0--------0---------2-----
B[-------0--0--------2--2-------------4--4--------------2--2-----0--0------2--2-
G[-----1--1--------3--3----------------4--------------2--2-----1--1------3--3---
D[----2-----------3----------------5-----------------2--------2---------3-------
A[---2-----------2----------------5-----------------0--------2---------2--------
E[-------------------------------4----------------------------------------------

                     G#m        A       This part can vary...
E[--------------------4-------------------------------------
B[--------------------4----4---2----------------------------
G[--------------------4----4---2----------4-2p0---2---------
D[---------------5----5----4---2--------2--------2----------
A[--------------5-----5----------------0--------------------
E[-------------4------4-------------------------------------


[ Tab from: http://www.guitartabs.cc/tabs/u/urban_keith/making_memories_of_us_tab.html ]
Chorus
    A(I’m)        E (love you)          A (nobody)           E (loves you)
e[------------------------------------------------------------------
B[--2-----------------0--------------------2-------------------0----
G[--2-----------------1--------------------2-------------------1----
D[--2-----------------2--------------------2-------------------2----
A[--0-----------------2--------------------0-------------------2----
E[------------------------------------------------------------------

    A(I’ll)         C#m(trust)        B (memories)           E(us)   This part can vary too
e[------------------------------------2-------------------------------2---------------------
B[--2-------------2-------------------2------------------------0----------------------------
G[--2-------------1-------------------3------------------------1-----------2h4p2--------2---
D[--2-------------2-------------------3------------------------2----4---------------4-2-----
A[--0-------------0-------------------2------------------------2—0--------------------------
E[------------------------------------------------------------------------------------------





Bridge
   G#m7 (we’ll)          E (rainbow)        A (wherever)        E (blow)
 e[--0----------------------------------------------------------------
 B[--0---------------------0------------------2----------------0------
 G[--4---------------------1------------------2----------------1------				
 D[--4---------------------2------------------2----------------2------						
 A[--x---------------------2------------------0----------------2------				
 E[--4----------------------------------------------------------------

G#m7 (and)      C#m (new day)      A(coming)     Bsus 4  (your)     B (way)
e[--0----------------------------------------------------------0------------------2-
B[--0-----------------------2-----------------2----------------0------------------2-			
G[--4-----------------------1-----------------2----------------4------------------3-			
D[--4-----------------------2-----------------2----------------4------------------3-			
A[--x-----------------------0-----------------0----------------2------------------2-			
E[--4-------------------------------------------------------------------------------


Comments