Urban Dub - Soul Searching Chords & Tabs

 

Soul Searching Chords & Tabs

Urban Dub Chords & Tabs

Version: 3 Type: Tab 0 ratings
1 star 2 stars 3 stars 4 stars 5 stars
comments

Soul Searching Tab

   
Soul Searching
Urban Dub
Tabbed by: Jan Paolo Cruz (DOrK)
ILIGAN CITY_Philippines

HI to: ---CHEL CASTRO---
         wilter, june, mark

PLayed in two guitars:

Intro (4x) 
E|-------------------------------------|
B|-------------------------------------|
G|-------------------------------------|
D|-------------------------------------|
A|-----5-5-------7-7-7-7-6-6-6-7-7-----|
E|-4-4-----7-7-7-------------------7-7-|

You can also play this by:
This one is better...

-|----------------------------------|---------------------------------|	
-|----------------------------------|---------------------------------|
-|----------------------------------|-------------------------2---2-2-|
-|---2-2-------3-3-3-2-2-3-3-2------|---2-2-------3-3-3-2-2-2---2-----|
-|-0-----3-3-3------------------3-3-|-0-----3-3-3---------------------|
-|----------------------------------|---------------------------------|
3X					4TH TIME



Intro Gtr.1  4x
E|--------------------------------------------|
B|--------------------------------------------|
G|---------x-4-4-4-x-6-6-6-x------------------|
D|-6-6-2-2-x-4-4-4-x-6-6-6-x------------------|
A|-6-6-2-2-x-2-2-2-x-4-4-4-x------------------|
E|-4-4-0-0-x----------------------------------|

IntroII Gtr.2 Listen to Cd for correct timing...
E|-----------------------|
B|-----------------------|
G|-3-3-4-4-x-8-8-x-11-11-|
D|-x-x-x-x-x-x-x-x-x--x--|
A|-1-1-2-2-x-6-6-x-9--9--|
E|-----------------------|

VerseI Gtr.1 (8x)
E|-------------------------------------|
B|-------------------------------------|
G|-------------------------------------|
D|-------------------------------------|
A|-----5-5-------7-7-7-7-6-6-6-7-7-----|
E|-4-4-----7-7-7-------------------7-7-|
  ---P A L M   M U T E---

VerseI Gtr. 2 
E|-----|
B|-----|
G|-----|
D|-6-6-|
A|-6-6-|
E|-4-4-|

Pre-chorus 
[ Tab from: http://www.guitartabs.cc/tabs/u/urban_dub/soul_searching_tab_ver_3.html ]
Chorus
E|-----------------------------|                       |-------------------------------|
B|-----------------------------|                       |-------------------------------|
G|---------------6-6-6-6-6-6-6-| Do this 3 times, then |-------------------------------|
D|-2-2-2-2-2-2-2-6-6-6-6-6-6-6-|                       |-7-7-7-7-7-7-7-7-7-7-7-7-7-7-7-|
A|-2-2-2-2-2-2-2-4-4-4-4-4-4-4-|                       |-7-7-7-7-7-7-7-7-7-7-7-7-7-7-7-|
E|-0-0-0-0-0-0-0---------------|                       |-5-5-5-5-5-5-5-5-5-5-5-5-5-5-5-|

Post-chorus Gtr.1
E|------------------------------------------------------|
B|------------------------------------------------------|
G|------------------------------------------------------|
D|------------------------------------------------------|
A|-----5-5-------7-7-7-7-6-6-6-7-7---------5-5-------7-7|
E|-4-4-----7-7-7-------------------7-7-4-4-----7-7-7----|

VerseII Gtr.1&2 

Pre-chorus
Chorus

Bridge
E|------------------------------------------------------------------|
B|------------------------------------------------------------------|
G|--5-5-5-5-5-5-5-5-5---------------5-5-5-5-5-5-5-5-5---------------|
D|--5-5-5-5-5-5-5-5-5-2-2-2-2-2-2-2-5-5-5-5-5-5-5-5-5-2-2-2-2-2-2-2-|
A|--4-4-4-4-4-4-4-4-4-2-2-2-2-2-2-2-4-4-4-4-4-4-4-4-4-2-2-2-2-2-2-2-|
E|--------------------0-0-0-0-0-0-0-------------------0-0-0-0-0-0-0-|

E|------------------------------------------------------------------|
B|------------------------------------------------------------------|
G|--5-5-5-5-5-5-5-5-5---------------5-5-5-5-5-5-5-5-5---------------|
D|--5-5-5-5-5-5-5-5-5-2-2-2-2-2-2-2-5-5-5-5-5-5-5-5-5-2-2-2-2-2-2-2-|
A|--4-4-4-4-4-4-4-4-4-2-2-2-2-2-2-2-4-4-4-4-4-4-4-4-4-2-2-2-2-2-2-2-|
E|--------------------0-0-0-0-0-0-0-------------------0-0-0-0-0-0-0-|
pm  - - - - - - - - - - - - - - - - - - - - - - - - - - - - - - - -

Chorus
IntroII

DUDE... i have the tab for solid by smooth friction... mail me>
rootz_809@yahoo.com
Comments