Urban Dub - Soul Searching Chords & Tabs

 

Soul Searching Chords & Tabs

Urban Dub Chords & Tabs

Version: 2 Type: Tab 0 ratings
1 star 2 stars 3 stars 4 stars 5 stars
comments

Soul Searching Tab

Tuning:(dropped D flat)
Intro I (Do this 4 times)
E|--------------------------------------|
B|--------------------------------------|
G|--------------------------------------|
D|---2-2--------3-3-3-2-2-3-3-----------|
A|-0-----3-3-3----------------3-3-------|
D|--------------------------------------|
pm - - - - - - - - - - - - - - - - - - -

Intro II Gtr.1 (Do this 4 times)
E|--------------------------------------|
B|--------------------------------------|
G|-----------x-5-5-x-7-7----------------|
D|-7-7-3-3-x-5-5-x-7-7-7-7-7------------|
A|-7-7-3-3-x-3-3-x-5-5-7-7-7------------|
D|-7-7-3-3-x--------------7-7-7---------|

Verse I Gtr.1 (Do this 8 times)
E|--------------------------------------|
B|--------------------------------------|
G|--------------------------------------|
D|---2-2--------3-3-3-2-2-3-3-----------|
A|-0-----3-3-3------------------3-3-----|
D|--------------------------------------|
pm - - - - - - - - - - - - - - - - - - 

Pre-chorus (Do intro II 5 times.)

Chorus
E|------------------------------------|
B|------------------------------------|
G|------------------------------------| 
D|-3-3-3-3-3-3-3-0-0-0-0-0-0-0--------|  
A|-3-3-3-3-3-3-3-0-0-0-0-0-0-0--------|  
D|-3-3-3-3-3-3-3-0-0-0-0-0-0-0--------|  
do this pattern thrice then...
[ Tab from: http://www.guitartabs.cc/tabs/u/urban_dub/soul_searching_tab_ver_2.html ]
E|------------------------------------|
B|------------------------------------|
G|------------------------------------| 
D|-8-8-8-8-8-8-8-8-8-8-8--------------|
A|-8-8-8-8-8-8-8-8-8-8-8--------------|
D|-8-8-8-8-8-8-8-8-8-8-8--------------| 

Post-chorus Gtr.1
E|------------------------------------|
B|------------------------------------|
G|------------------------------------|
D|---2-2--------3-3-3-2-2-3-3---------|
A|-0-----3-3-3------------------3-3---|
D|------------------------------------|

Verse II ( same as verse I )

Pre-chorus
Chorus

Bridge
E|------------------------------------------------------------|
B|------------------------------------------------------------|
G|------------------------------------------------------------| 
D|-0-0-0-0-0-0-0-3-3-3-3-3-3-3-0-0-0-0-0-0-0-3-3-3-3-3-3-3----|  
A|-0-0-0-0-0-0-0-3-3-3-3-3-3-3-0-0-0-0-0-0-0-3-3-3-3-3-3-3----|  
D|-0-0-0-0-0-0-0-3-3-3-3-3-3-3-0-0-0-0-0-0-0-3-3-3-3-3-3-3----|  

and then...
E|------------------------------------------------------------|
B|------------------------------------------------------------|
G|------------------------------------------------------------| 
D|-0-0-0-0-0-0-0-3-3-3-3-3-3-3-0-0-0-0-0-0-0-3-3-3-3-3-3-3----|  
A|-0-0-0-0-0-0-0-3-3-3-3-3-3-3-0-0-0-0-0-0-0-3-3-3-3-3-3-3----|  
D|-0-0-0-0-0-0-0-3-3-3-3-3-3-3-0-0-0-0-0-0-0-3-3-3-3-3-3-3----|  
pm -  -  -  -  -  -  -  -  -  -  

Chorus
IntroII
Comments