Urban Dub - Soul Searching Chords & Tabs

 

Soul Searching Chords & Tabs

Urban Dub Chords & Tabs

Version: 1 Type: Bass Tab 0 ratings
1 star 2 stars 3 stars 4 stars 5 stars
comments

Soul Searching Bass Tab

Standard Tuning

Urban Dub - Soul Searching ( bass )

Intro 1

G|------|
D|------| x4
A|------|
E|-4-4--|

Intro 2

G|--------------------------------------------|
D|--------------------------------------------| x4
A|-----------2-2-2-x-4-4-4-x------------------|
E|-4-4-0-0-x----------------------------------|

Verse 1

G|-----------------------------------|
D|-----------------------------------| x8
A|-----6-6-------7-7-7-6-6-6-7-7-----|
E|-4-4-----7-7-7-----------------7-7-|

Pre-chorus

G|--------------------------------------------|
D|--------------------------------------------| x5
A|-----------2-2-2-x-4-4-4-x------------------|
E|-4-4-0-0-x----------------------------------|

Chorus
[ Tab from: http://www.guitartabs.cc/tabs/u/urban_dub/soul_searching_btab.html ]
G|-----------------------------| 
D|-----------------------------| x2                      
A|---------------4-4-4-4-4-4-4-|                       
E|-0-0-0-0-0-0-0---------------| 

G|------------------------------------------------------------| 
D|------------------------------------------------------------|                       
A|---------------4-4-4-4-4-4-4--------------------------------|                       
E|-0-0-0-0-0-0-0----------------5-5-5-5-5-5-5-5-5-5-5-5-5-5-5-|                      

Adlib

Verse 1
Pre-chorus
Chorus

Bridge
G|-------------------------------------------------------------------|
D|-------------------------------------------------------------------|
A|-------------------------------------------------------------------|
E|-9-9-9-9-9-9-9-9-9--0-0-0-0-0-0-0--9-9-9-9-9-9-9-9-9-0-0-0-0-0-0-0-|

Chorus

Outro

G|-------------------------------|
D|-------------------------------| x5
A|----------2-2-2-4-4-4----------|
E|-4-4-0-0-----------------------|
Comments