Urban Dub - Run Away Chords & Tabs

 

Run Away Chords & Tabs

Urban Dub Chords & Tabs

Version: 2 Type: Tab 0 ratings
1 star 2 stars 3 stars 4 stars 5 stars
comments

Run Away Tab

                 
                       RUNAWAY BY:URBAN DUB
                     transcribed by:freongang
                visit me at:freongang_81@yahoo.com
                      freongang_08@yahoo.com


intro: (guitar riffs) X2
Eb|--9--  -9--------------------------|
Bb|--7--  -7--7-8-----7--7-8----------|
Gb|--7--  -7-------8---------7--------|
Db|-----  ----------------------------|
Ab|-----  ----------------------------|
Eb|-----  ----------------------------|

intro: (bass riffs) X2
Eb|-------------------------------|
Bb|-------------------------------|
Gb|-------------------------------|
Db|-------------------------------|
Ab|--7-8-----7---7-8--------------|
Eb|------8-----------7------------|

           X4
Eb|-----------------------------|
Bb|-----------------------------|
Gb|-7-7/14----15-9/11-11--------|
Db|-----------------------------|
Ab|-5-5/12----13-7/9--9---------|
Eb|-----------------------------|
[ Tab from: http://www.guitartabs.cc/tabs/u/urban_dub/run_away_tab_ver_2.html ]
 Here I travel way from home...
Eb|-------------------------9---------9---------9-------|
Bb|-7-8----7--7-8---------7---7-----7---7-----7---7-----|
Gb|-----8---------7-----7---------7---------7-----------|
Db|-----------------------------------------------------|
Ab|-----------------------------------------------------|
Eb|-----------------------------------------------------|

 I said why should I go...  X4
Eb|-------------  ---------------------------------|
Bb|--(let ring)-  ---------------------------------|
Gb|-----5-------  -9-9-9-9-9-9-9-9-5-5-5-5-5-5-5-5-|
Db|-----5-------  -9-9-9-9-9-9-9-9-5-5-5-5-5-5-5-5-|
Ab|-----3-------  -7-7-7-7-7-7-7-7-3-3-3-3-3-3-3-3-|
Eb|-0-0---------  ---------------------------------|

Eb|---------------------------------------------|
Bb|---------------------------------------------|
Gb|-9-9-9-9-9-9-9-9-5-5-5-5-5-5-5-5-------------|
Db|-9-9-9-9-9-9-9-9-5-5-5-5-5-5-5-5--7-8-7--5---|
Ab|-7-7-7-7-7-7-7-7-3-3-3-3-3-3-3-3-------------|
Eb|---------------------------------------------|

    (As many times)
Eb|-----------------------------------------------------------|
Bb|-7-7-7-7-------7-7-7-7-------7-7-7-7-------7-7-7-7---------|
Gb|---------8-8-8---------7-7-7---------8-8-8---------7-7-7---|
Db|-----------------------------------------------------------|
Ab|-----------------------------------------------------------|
Eb|-----------------------------------------------------------|
          Just follow the sequence<<<>>>
Comments