Urban Dub - Fallen On Deaf Ears Chords & Tabs

 

Fallen On Deaf Ears Chords & Tabs

Urban Dub Chords & Tabs

Version: 2 Type: Tab 0 ratings
1 star 2 stars 3 stars 4 stars 5 stars
comments

Fallen On Deaf Ears Tab

   
Song: Fallen on deaf ears
By: Urban Dub
Tabbed by: kip (email- kip_motionsickness@yahoo.com)

Sorry... Inaantok na ako nung ginawa ko yung isang tab
I got the prechorus wrong + some other small mistakes
Here is a MORE CORRECT version 


h = hammer
p = pull
x = dead

============================================================================
Intro:
gtr.1 (clean)
e------------------|
B------------------|
G-8888888888888888-|
D-6666666666666666-|
A------------------|
E------------------|

============================================================================
gtr.1(clean)              palm muted                                 
e------------------|      e----------------------------------|
B---8--8-8--8--8-8-|      B----------------------------------|
G-88-88-8-88-88-8--| x2   G-7777777777777888-777777777777777-|
D-66-66-6-66-66-6--|      D-5555555555555666-555555555555555-|
A------------------|      A----------------------------------|
E------------------|      E----------------------------------|

gtr.2 (distortion)
e------------------|
B------------------|
G-3355---3355------| x4
D-----666----55555-|
A------------------|
E------------------|
============================================================================
gtr.1 (distortion)
e----------------------------------------------------------------------|
B----------------------------------------------------------------------|
G-------------3h5p3x------------3h5p3x---------------------------------|
D-666666666666-----x666666666666------3333333333333333-333333333333333-|
A-666666666666-----x666666666666------3333333333333333-333333333333333-|
E-444444444444-----x444444444444------1111111111111111-111111111111111-|

gtr.2 (distortion)
e------------------|
B------------------|
G-3355---3355------| x4
D-----666----55555-|
A------------------|
E------------------|
============================================================================
Verse:
gtr.1 (clean)                       
e---------------------------------|  
B---------------------------------| 
G---------------------------------|  
D---------------------------------| 
A-3333333333333333-333333333333333|    
E-4444444444444444-444444444444444|   
                                                                            
gtr.1 cont. (distortion)                                                           
e--------------------------------------|                   
B--------------------------------------|                        
G--------------------------------------|          
D-3333333333333333-333333333333333-----| 
A-3333333333333333-333333333333333-----| 
E-1111111111111111-111111111111111-----| 


gtr.2 (distortion)  plays only on noisy part
e------------------|      
B------------------|
G-3355---3355------| x2     
D-----666----55555-|
A------------------|
E------------------|

============================================================================
Prechorus:

gtr.1 and 2 (distortion, palm mute)
e----------------------------------|
B----------------------------------|
G----------------------------------|
D-55555555555555556666666666666666-|
A-33333333333333334444444444444444-|
E----------------------------------|

============================================================================Chorus 

gtr.1 (distortion)
e------------------------------------------------------------------|
B------------------------------------------------------------------|
G---------------------------------66666666666666663333333333333333-|
D-6666666666666666333333333333333366666666666666663333333333333333-|
A-6666666666666666333333333333333344444444444444441111111111111111-|
E-44444444444444441111111111111111---------------------------------|

gtr.2 (distortion)
e--------------------------------------------------------------------|
B--------------------------------------------------------------------|
G-------------3h5p3x----------------66666666666666663333333333333333-|
D-666666666666-----x333333333333333366666666666666663333333333333333-|
A-666666666666-----x333333333333333344444444444444441111111111111111-|
E-444444444444-----x1111111111111111---------------------------------|
============================================================================
interlude(whatever you wanna call it)
[ Tab from: http://www.guitartabs.cc/tabs/u/urban_dub/fallen_on_deaf_ears_tab_ver_2.html ]
gtr.1 (distortion)
e------------------------------------------------------------------|
B------------------------------------------------------------------|
G---------------------------------66666666666666663333333333333333-|
D-6666666666666666333333333333333366666666666666663333333333333333-|
A-6666666666666666333333333333333344444444444444441111111111111111-|
E-44444444444444441111111111111111---------------------------------|

gtr.2 (distortion)
e-----------------------------------|          e---------------------|
B-8h9p8-----------------------------|          B-8h9-8h9-8h9-8h9-8h9-|
G------8h10p8---------------8h10----| x3, then G---------------------| 
D------------8h10p8-----8h10--------|          D---------------------|
A------------------8h10-------------|          A---------------------|
E-----------------------------------|          E---------------------|

============================================================================
cont.

gtr.1 (clean)                           (distortion)
e----------------------------------|    e--------------------------------   
B----------------------------------|    B---------------------------------  
G----------------------------------|    G----------------------------------|
D------------5--66-----------------|    D-33333333333333333333333333333333-|
A-333333333335--663333333333333333-|    A-33333333333333333333333333333333-|
E-444444444443--444444444444444444-|    E-11111111111111111111111111111111-|
             ^  ^^
             distortion here, then clean again


gtr.2 (distortion) 
e------------------|
B------------------|
G-3355---3355------| x4
D-----666----55555-|
A------------------|
E------------------|

============================================================================ 
verse2 is the same except for silence 
on "everyday.."

prechorus is the same too

============================================================================
Bridge

gtr.1 (distortion) 
e------------------------------------------------------------------|
B-------------------------------------------------------------6666-|
G-------------------------------------------------333555666888-----|
D-666666666666666666666666666666663333333333333333------------3333-|
A-666666666666666666666666666666663333333333333333111333444666-----|
E-444444444444444444444444444444441111111111111111-----------------|

gtr.2(distortion) listen closely to the song, this lead part exists 
E-6666666666666666666666666666666688888888888888888888888888888888-|
B------------------------------------------------------------------|
G-3333333333333333333333333333333355555555555555555555555555555555-|
D------------------------------------------------------------------|
A------------------------------------------------------------------|
E------------------------------------------------------------------|

===========================================================================
Chorus 2x, with guitar2 playing that interlude riff the second time
===========================================================================
slow part

gtr.1 & 2 do chorus chords while "can you hear me" is repeated

===========================================================================
then, at "you can take this love to go" 
gtr.1 still plays chorus, while


gtr.2(distortion) theres a correct way of strumming this, listen to it
e------------------------------------------------------------------|
B-999999998888888899999999888888889999999988888888-----------------|
G-------------------------------------------------8888888888888888-|
D-666666665555555566666666555555556666666655555555-----------------|
A-------------------------------------------------6666666666666666-|
E------------------------------------------------------------------|
                                                    

gtr.1 and 2
e------------------|
B------------------|
G-6-----6----------|
D-6-55556-55555555-|
A-4-55554-55555555-|
E---3333--33333333-|

============================================================================
Outro

gtr.1(clean)                 
e------------------|     
B---8--8-8--8--8-8-|     
G-88-88-8-88-88-8--| x2
D-66-66-6-66-66-6--|      
A------------------|     
E------------------| 

gtr.2 (distortion)
e------------------|
B------------------|
G-3355---3355------| x2
D-----666----55555-|
A------------------| gtr. 2 slows down sumhow, 
E------------------| i guess you'll figure it out

gtr.1 (clean)
e------------------|
B------------------|
G-8888888888888888-|
D-6666666666666666-|
A------------------|
E------------------|
Comments