Urban Dub - Eating Me Chords & Tabs

 

Eating Me Chords & Tabs

Urban Dub Chords & Tabs

Version: 1 Type: Tab 0 ratings
1 star 2 stars 3 stars 4 stars 5 stars
comments

Eating Me Tab

Song: Eating me
Artist: Urban Dub
Album: Birth
Tabbed by: Sungao


Intro
 Guitar 1
 |-----------------------------------------------------------------|
 |-----------------------------------------------------------------|
 |----------------------------------------7--7--5--5---------------|
 |-----------------5--4-------------------7--7--5--5---------------|
 |------------------------5--2--2--2--2---5--5--3--3---------------|
 |---x-x--3--3-----------------------------------------------------|

 |------------------------------------------------------------------|
 |------------------------------------------------------------------|
 |----------------------------------------5--5--5--5----------------|
 |-----------------5--4-------------------5--5--5--5----------------|
 |------------------------5--2--2--2--2---3--3--3--3----------------|
 |---x-x--3--3------------------------------------------------------|
					X2
Main Riff
 Both Guitars
 |------------------------------------------------------------------|
 |------------------------------------------------------------------|
 |---------------------------------7--7--5--5-----------------------|
 |----------5--4-------------------7--7--5--5-----------------------|
 |-----------------5--2--2--2--2---5--5--3--3-----------------------|
 |---3--0-----------------------------------------------------------|

 |------------------------------------------------------------------|
 |------------------------------------------------------------------|
 |------------------------------------5--5--5--5--------------------|
 |----------5--4----------------------5--5--5--5--------------------|
 |-----------------5--2--2--2--2---3--3--3--3-----------------------|
 |---3--0-----------------------------------------------------------|
					X2
Verse
 Guitar 2 rest
 Guitar 1
 |--------------------------------------------------------------------|
 |--------------------------------------------------------------------|
 |----------------------------------------7--7--7--7------------------|
 |-----------------5--4-------------------7--7--7--7------------------|
 |------------------------5--2--2--2--2---5--5--5--5------------------|
 |---x-x--3--3--------------------------------------------------------|

 |---------------------------------------------------------------------|
 |---------------------------------------------------------------------|
 |----------------------------------------5--5--5--5-------------------|
 |-----------------5--4-------------------5--5--5--5-------------------|
 |------------------------5--2--2--2--2---3--3--3--3-------------------|
 |---x-x--3--3---------------------------------------------------------|
 					X4
[ Tab from: http://www.guitartabs.cc/tabs/u/urban_dub/eating_me_tab.html ]
Refrain
 Both Guitars
 |------------------------------------------------------------------------|
 |------------------------------------------------------------------------|
 |----5--5--5--5--5--5--5--5--5--5--5--5--5-------------------------------|
 |----5--5--5--5--5--5--5--5--5--5--5--5--5-------------------------------|
 |----3--3--3--3--3--3--3--3--3--3--3--3--3-------------------------------|
 |------------------------------------------------------------------------|

Repeat Main Riff

 |-------------------------------------------------------------------------|
 |-------------------------------------------------------------------------|
 |---------------5----------5----------5---------5-------------------------|
 |----5--5--5--5--5--5--5--5--5--5--5--5--5--------------------------------|
 |----3--3--3--3--3--3--3--3--3--3--3--3--3--------------------------------|
 |-------------------------------------------------------------------------|
 		P.M............

Chorus
 Both Guitars
 |---------------------------------------------------------------------------|
 |---------------------------------------------------------------------------|
 |-----------------4--4--4--4---5--5--5--5-----------------------------------|
 |----5--5--5--5---4--4--4--4---5--5--5--5---7--7--7--7----------------------|
 |----5--5--5--5---2--2--2--2---3--3--3--3---7--7--7--7----------------------|
 |----3--3--3--3-----------------------------5--5--5--5----------------------|
					X4

Repeat Main Riff
Repeat Verse
Repeat Chorus

Bridge
 Both Guitars
 |---------------------------------------------------------------------|
 |---------------------------------------------------------------------|
 |---------------------------------------------------------------------|
 |---5--5--5--5-----9--9--9--9----10-10-10-10-----7--7--7--7-----------|
 |---5--5--5--5-----9--9--9--9----10-10-10-10-----7--7--7--7-----------|
 |---3--3--3--3--\--7--7--7--7--\--8---8---8---8--/--5--5--5--5--------|
					X4
Repeat Intro
Repeat Refrain
Repeat Chorus

Ending
 |---------------------------------------------------------------------------|
 |---------------------------------------------------------------------------|
 |---------------------------------------------------------------------------|
 |---5--5--5--5-----9--9--9--9----10-10-10-10-----7--7--7--7--x--x--x--x-----|
 |---5--5--5--5-----9--9--9--9----10-10-10-10-----7--7--7--7--x--x--x--x-----|
 |---3--3--3--3--\--7--7--7--7--\--8---8---8---8--/--5--5--5--5--x--x--x--x--|
					X4
 |---------------------------------------------------------------------------|
 |---------------------------------------------------------------------------|
 |------------------7----5---------------------------------------------------|
 |---5----4----2----7----5---let ring----------------------------------------|
 |---5----4----2----5----3---------------------------------------------------|
|---3----2----0--------------------------------------------------------------|

Magulo yat ung pag kakatab ko nung 2 things..
pacensia n kau...
astigg....

sungao_punk@yahoo.com    09219762870
Comments