Urban Dub - Alert The Armory Chords & Tabs

 

Alert The Armory Chords & Tabs

Urban Dub Chords & Tabs

Version: 2 Type: Tab

Alert The Armory Tab

hi, this song is from urbandub... it's a great song so i tabbed it coz some tabs are
not complete... anyways this is my version, uhm i used the acoustic guitar to get this
song so, there may be some tunes that differ from the electric... but just try my 
do not steal this...
vote nyo rin ha!

ALERT THE ARMORY
by: URBANDUB

legend:
~-prolong
...-strum it longer
x-pause/tap

tunning: Drop D, half step down yata... (try to listen and tune ur guitar with the song)

strumming: basic down, up, down..../ down down down...

INTRO:

e|--------------------------------------------|
b|--------------------------------------------|
g|----0-5----5--------------0-5---------------|
d|----0-x-00-x-0----------000-x-00------------|
a|--000-3-00-3-0----------000-3-00------------|
D|--000---00---0-5-4-3-0--000---00-5--4-3-0---|

e|--------------------------------------------|
b|--------------------------------------------|
g|-------12--10----10---------12--10-----10---|
d|--888------888--888----888------888---888---|
a|--888------888--888----888------888---888---|
D|--888------888--888----888------888---888---|

repeat nyo yung intro according to the song.. d ko nabilang eh...

VERSE:

e|-----------------------------|
b|-----------------------------|
g|-----------------------------|
d|---5-4-0~--------------------|
a|---5-4-0~--------------------|
D|---5-4-0~--------------------|


e|-----------------------------|
b|-----------------------------|
g|--33--5-2-3-3-5-2------------|
d|--33----3-3-3----------------|	repeat 2x
a|--11------1-1----------------|
D|-----------------------------|

repeat VERSE 2x.

REFRAIN:
						there is death...
e|------------------------------------------------------|
b|------------------------------------------------------|
g|------------------------------------------------------|
d|--5-4-0--0-3--00-8~----5-4-0--0-3--00-8~--888--555x---|
a|--5-4-0--0-3--00-8~----5-4-0--0-3--00-8~--888--555x---|
D|--5-4-0--0-3--00-8~----5-4-0--0-3--00-8~--888--555x---|

CHORUS:

					mayday... mayday!
e|-----------------------------------------------|
b|-----------------------------------------------|
g|-----------------------------------------------|
d|--0--03-03-\--8-88-5555--0--03-03-\-8-88--55---|
a|--0--03-03-\--8-88-5555--0--03-03-\-8-88--55---|
D|--0--03-03-\--8-88-5555--0--03-03-\-8-88--55---|

e|--------------------------------------------------------------------------|
b|--------------------------------------------------------------------------|
g|--------------------------------------------------------------------------|
d|--0~----------------------------------------------------------------------|
a|--0~----(drums beat---then-bass)--0-3---3--------------0-3---3------------|
D|--0~----------------------------00----00--0-5-4-3-0--00----00--0-5-4-3-0--|
[ Tab from: http://www.guitartabs.cc/tabs/u/urban_dub/alert_the_armory_tab_ver_2.html ]
e|--------------------------------------------|
b|--------------------------------------------|
g|-------12--10----10---------12--10-----10---|
d|--888------888--888----888------888---888---|
a|--888------888--888----888------888---888---|
D|--888------888--888----888------888---888---|

bring the tears.....      eyes....
e|------------------------------------------------------|
b|------------------------------------------------------|
d|------------------------------------------------------|
g|------------------------------------------------------|
d|---5-4-0-~~~-0000000...---88888........---------------|
a|---5-4-0-~~~-0000000...---88888........---------------|
D|---5-4-0-~~~-0000000...---88888........---------------|

listen to the song for the shifting.. i don't know how many strums eh..


      me...   cold... cuts the warmth....
e|------------------------------------------------------|
b|------------------------------------------------------|
d|------------------------------------------------------|
g|------------------------------------------------------|
d|--0000...---888...------------------------------------|
a|--0000...---888...------------------------------------|
D|--0000...---888...------------------------------------|

(loud part)

e|------------------------------------------------------|
b|------------------------11-11-11----------------------|
d|------------------------10-10-10----------------------|
g|------------------------8--8--8-----------------------|repeat 2x
d|--00...---10-10...--8888------------------------------|
a|--00...---10-10...--8888------------------------------|
D|--00...---10-10...--8888------------------------------|


REFRAIN:

e|----------------------------------------------------|
b|----------------------------------------------------|
g|----------------------------------------------------|
d|--5-4-0--0-3--00-8~----5-4-0--0-3--00-8~--888-------|
a|--5-4-0--0-3--00-8~----5-4-0--0-3--00-8~--888-------|
D|--5-4-0--0-3--00-8~----5-4-0--0-3--00-8~--888-------|

there is death... i'm so sick of you and love!
e|--------------------------------------------|
b|--------------------------------------------|
g|--------------------------------------------|
d|-------555...---888...----------------------|
a|-------555...---888...----------------------|
D|-------555...---888...----------------------|

CHORUS:

					mayday... mayday!
e|-----------------------------------------------|
b|-----------------------------------------------|
g|-----------------------------------------------|
d|--0--03-03-\--8-88-5555--0--03-03-\-8-88--55---|
a|--0--03-03-\--8-88-5555--0--03-03-\-8-88--55---|
D|--0--03-03-\--8-88-5555--0--03-03-\-8-88--55---|


then the ending is just the same chords like the chorus but with a different strumming 
so, i leave that to you...!

enjoy!


invite at friendster /mailto