Urban Dub - Alert The Armory Chords & Tabs

 

Alert The Armory Chords & Tabs

Urban Dub Chords & Tabs

Version: 1 Type: Bass Tab

Alert The Armory Bass Tab

   
bass tab of alert the armory

tuning:half step down na drop d
pang beginner lang toh...
nilagay ko na lahat sa uppermost string para madali
pero kung gusto niyong gawing maporma habang nagbabass, ilipat niyo ung mga notes sa higher note strings...

pls rate...tnx...
intro:guitar only.. 
2nd part of intro...
Gb||--------------------------------------------------------------|
Db||--------------------------------------------------------------| 2x
Ab||--------------------------------------------------------------|
Db||-0000x0x00x0x00000000x0x00x0x0000-8888x8888x888x8888x8888x8888|

||----------------------------------------------------------------|
||----------------------------------------------------------------| 
||----------------------------------------------------------------| 2x
||-0000------------------8888-888-8888-888------------------------|

||----------------------------------------------------------------|
||----------------------------------------------------------------| 
||----------------------------------------------------------------| 2x
||-0-0h3-3/8-8-88-------------------------------------------------|

||-------------||-------------------------------------------------|
||-------------||-------------------------------------------------| 
||-------------||-------------------------------------------------| 3x
||--555555-----||----------0-0-0--3-3--0-3/8-8-8-5-5-7/8----------|

||----------------------------------------------------------------|
||----------------------------------------------------------------| 
||----------------------------------------------------------------|
||------------0-0-0--3-3--0-3/8-8-8-5-5-8p7p0---------------------|

solo:with bass effects...
||----------------------------------------------------------------|
||----------------------------------------------------------------| 
||----------------------------------------------------------------| 2x 
||----000-7-10-0-7-10---3-2-0-------------------------------------|
[ Tab from: http://www.guitartabs.cc/tabs/u/urban_dub/alert_the_armory_btab.html ]
||----------------------------------------------------------------|
||----------------------------------------------------------------| 
||----------------------------------------------------------------| 
||----8888-888-8888-888-------------------------------------------|

||----------------------------------------------------------------|
||----------------------------------------------------------------| 
||----------------------------------------------------------------| 2x
||---000000000000000000000000000000----8-8-8-8--------------------|

||----------------------------------------------------------------|
||----------------------------------------------------------------| 
||----------------------------------------------------------------| 2x
||---0000000000000000-101010101010-----88888------88888-----------|

||----------------------------------------------------------------|
||----------------------------------------------------------------| 
||----------------------------------------------------------------| 2x
||-0-0h3-3/8-8-88-------------------------------------------------|

||-------------------||-------------------------------------------|
||-------------------||-------------------------------------------| 
||-------------------||-------------------------------------------| 3x
||--555555--888888---||-----0-0-0--3-3--0-3/8-8-8-5-5-7/8---------|

||----------------------------------------------------------------|
||----------------------------------------------------------------| 
||----------------------------------------------------------------|
||----0-0-0--3-3--0-3/8-8-8-5-5-8p7p0-----------------------------|

||----------------------------------------------------------------|
||----------------------------------------------------------------| 
||----------------------------------------------------------------| 3x
||----0-0-0-0-3-3-3-3-8-8-8-8-5-5-5-5-----------------------------|

||----------------------------------------------------------------|
||----------------------------------------------------------------| 
||----------------------------------------------------------------| 
||----0-0-0-0-3-3-3-3-8-8-8-8-5-5---------------------------------|