Urban Dub - A New Tattoo Chords & Tabs

 

A New Tattoo Chords & Tabs

Urban Dub Chords & Tabs

Version: 1 Type: Tab 0 ratings
1 star 2 stars 3 stars 4 stars 5 stars
comments

A New Tattoo Tab

Hello ha iyo,amo ini it intro tabs han song na "a new tattoo" by urbandub
Testingi la niyo kun amo na....Keep Rockin!!!!

Artist:Urbandub
Song:A New Tattoo
Album:Influence
Tabbed By:A-ang a.k.a. kyawlot
Tuning:Drop D
Email:slip_knots2000@yahoo.com kung may friendster kayo add me pls
[ Tab from: http://www.guitartabs.cc/tabs/u/urban_dub/a_new_tattoo_tab.html ]
E------2--------5-2-2h3(4x)-3-3h5h3h5h7h--7553322---2---2---2----|
B--------3----------------------------------------5---5---5------|
G----4--------4--------------------------------------------------|
D-5---------5----------------------------------------------------|
A----------------------------------------------------------------|
D----------------------------------------------------------------|

E----------------------------------------------------------------|
B----------------------------------------------------------------|
G----------------------------------------------------------------|
D-55555555--22222222--99999999--1010101010101010-----------------|
A-55555555--22222222--99999999--1010101010101010-----------------|
D-55555555--22222222--99999999--1010101010101010-----------------|


that's it coz' i'm too lazy to write the whole song
Comments