Urban Dub - A New Tattoo Chords & Tabs

 

A New Tattoo Chords & Tabs

Urban Dub Chords & Tabs

Version: 1 Type: Bass Tab

A New Tattoo Bass Tab

Tabbed by BOB VILLANUEVA!!! :D (1st tab mehn!)
Intro:
G----------------------------------------|
D----------------------------------------|
A-----------66666666-11111111-22222222---|
E--22222222------------------------------|

G----------------------------------------|
D----------------------------------------|
A-----------66666666-11111111-22222222---|
E--222222--------------------------------|

Verse 1:
G----------------------------------------|
D----------------------------------------|
A--------------------11111111-22222222---|
E----------------------------------------|

G----------------------------------------|
D----------------------------------------|
A-----------66666666-11111111-22222222---|
E--22222222------------------------------|

Pre-Chorus:
G----------------------------------------|
D----------------------------------------|
A---------2-222-2--------2-22-22---------|
E--4-444-4-------4-444-4-----------------|

Chorus 1:

G----------------------------------------|
D----------------------------------------|
A-----------66666666-11111111-22222222---|
E--22222222------------------------------|

Verse 2:

G----------------------------------------|
D----------------------------------------|
A-----------66666666-11111111-22222222---|
E--22222222------------------------------|

G----------------------------------------|
D----------------------------------------|
A-----------66666666-11111111-22222222---|
E--22222222------------------------------|

Pre-Chorus:
G----------------------------------------|
D----------------------------------------|
A---------2-222-2--------2-22-22---------|
E--4-444-4-------4-444-4-----------------|

Chorus 2:

G----------------------------------------|
D----------------------------------------|
A-----------66666666-11111111-22222222---|
E--22222222------------------------------|
[ Tab from: http://www.guitartabs.cc/tabs/u/urban_dub/a_new_tattoo_btab.html ]
G----------------------------------------|
D----------------------------------------|
A-----------66666666-11111111-22222222---|
E--22222222------------------------------|

Bridge:

G----------------------------------------|
D----------------------------------------|
A--66666666----------44444444-44444444---|
E-----------22222222---------------------|

G----------------------------------------|
D----------------------------------------|
A--66666666----------44444444-44444444---|
E-----------22222222---------------------|

G----------------------------------------|
D----------------------------------------|
A------------------46-46-6-46-46---------|
E--46-46-6-46-46-6-----------------------|

G----------------------------------------|
D----------------------------------------|
A------------------46-46-6-46-46---------|
E--46-46-6-46-46-6-----------------------|

Chorus 3:

G----------------------------------------|
D----------------------------------------|
A--------------------11111111-22222222---|
E--222222--------------------------------|

G----------------------------------------|
D----------------------------------------|
A-----------66666666-11111111-22222222---|
E--22222222------------------------------|

G----------------------------------------|
D----------------------------------------|
A-----------66666666-11111111-22222222---|
E--22222222------------------------------|

G----------------------------------------|
D----------------------------------------|
A-----------66666666-11111111-222222-----|
E--22222222------------------------------|

Ending:

G----------------------------------------|
D----------------------------------------|
A--222222-222222--222222-6---------------|
E----------------------------------------|

You could try scaling when you hit the notes B or C#:)
sounds sooo coool!!!
Easy?!?! hahaha! EMBRACE URBANDUB!!!! >:)
I'm 99% sure of that tab! enjoy! thats how i play it!
www.purevolume.com/higgledypiggledy <---Check it out!