Urban Dub - A New Tatoo Chords & Tabs

 

A New Tatoo Chords & Tabs

Urban Dub Chords & Tabs

Version: 1 Type: Tab 0 ratings
1 star 2 stars 3 stars 4 stars 5 stars
comments

A New Tatoo Tab

artist:Urban Dub
song: A new Tatoo
E|-----------------------------|
B|----0-7----0-10-7--7h8-7-----|
G|--0----7-0--------------9p7--|
D|-----------------------------|
A|-----------------------------|
E|-----------------------------|
[ Tab from: http://www.guitartabs.cc/tabs/u/urban_dub/a_new_tatoo_tab.html ]
E|--------------------------------------------------------------|
B|--8-8h10-8h10--12p10-12p10-12p10--8-8h10-8h10-7h8-------------|
G|-------------------------------------------------4h5-4h5-4h5--|
D|--------------------------------------------------------------|
A|--------------------------------------------------------------|
E|--------------------------------------------------------------|

Bati nga rin pla namin ang "TAU GAMMA PHI" Triskelion Grand Fraternity.....
at kay cindy ung bago kong chick whehehe..... at sa ex-ko c cesz....hi
Comments