Urban Dub - 2 Things Chords & Tabs

 

2 Things Chords & Tabs

Urban Dub Chords & Tabs

Version: 1 Type: Tab 0 ratings
1 star 2 stars 3 stars 4 stars 5 stars
comments

2 Things Tab

Song: 2 Things
Artist: Urban Dub
Album: Birth
Tabbed by: Sungao


Intro
 |---3--------3------3-------3-------------------------------|
 |----------0------0-------0----0----------------------------|
 |-------0-------0------0----------0-------------------------|
 |--------------------------------------0--------------------|
 |---0-------------------------------------------------------|
 |-----------------------------------------------------------|

 |---0-------0---------------0--------------------------------|
 |---------0-------0---------0--------------------------------|
 |------0-------0----0------0---------------------------------|
 |----------------------------0-------------------------------|
 |---3-----------------------3--------------------------------|
 |------------------------------------------------------------|
				X2

Verse
 Same as the intro

Refrain
 |---3--3--3--3--3--3---3--3--3--3--3--3------------------------|
 |---3--3--3--3--3--3---3--3--3--3--3--3------------------------|
 |--------------------------------------------------------------|
 |---2--2--2--2--2--2---2--2--2--2--2--2------------------------|
 |---2--2--2--2--2--2---3--3--3--3--3--3------------------------|
 |--------------------------------------------------------------|
				 X8
[ Tab from: http://www.guitartabs.cc/tabs/u/urban_dub/2_things_tab.html ]
Interlude
 |--------------------------------------------------------------|
 |------3--3------3--3------3--3----3-h-5-3---------------------|
 |------------0----------0-----------0-----------0--------------|
 |----------------------------------------------------0---------|
 |---------------0----------3-----------------------------------|
 |---3----------------------------------------------------------|
  				X3
 |-------------------------------------0-----0--0--0-------------|
 |------3--3------3--3-------3---3---3--3--3--0------------------|
 |------------0----------0-------0---------0--0--0---------------|
 |---------------------------------------------------------------|
 |---------------0----------3------------------------------------|
 |---3-----------------------------------------------------------|

Repeat Refrain

Chorus
 |-----------------------------------------------------------------|
 |------3--3------3--3------3--3----3-h-5-3------------------------|
 |------------0----------0-----------0-----------0-----------------|
 |----------------------------------------------------0------------|
 |---------------0----------3--------------------------------------|
 |---3-------------------------------------------------------------|

Ending
 Repeat Intro X2

 |----3-----------------------------------------------------------|
 |----3-----------------------------------------------------------|
 |----------------------------------------------------------------|
 |----------let ring----------------------------------------------|
 |----2-----------------------------------------------------------|
 |----3-----------------------------------------------------------|


"Kayong mga babae mag aaral muna kayo...
 Wag kayong mag palinlang...
 Magplano ng pamilya...
 Labanan ang Vat...
 Salamat...
                                  - Excreta Band -

sungao_punk@yahoo.com     09219762870
Comments